Problème lecture de tab Linkin park


nouveau message Répondre
Recherche

#
clef-treble Salut tout le monde icon_cheesygrin
Voilà sa fait deux ans que je fais de la gratte folk et le gentil papa noyel m'a apporté une belle fender noir et blanche électrique . Et donc j'aimerais m'éclater en jouant du Linkin Park&co mais impossible de comprendre la tab hum

-Chorus- 1:33
I-----------------------------|I I------------------------------------------------|I
I-----------------------------|I I------------------------------------------------|I
I-----------------------------|I I------------------------------------------------|I
I-2-2222-5-5555-0-0000-7-7777-|I I-2-2222-5-5555-0-00000000000-7-7777-xx8-xx3-----|I
I-2-2222-5-5555-0-0000-7-7777-|I I-2-2222-5-5555-0-00000000000-7-7777-xx8-xx3-----|I
I-2-2222-5-5555-0-0000-7-7777-|Ix3 I-2-2222-5-5555-0-00000000000-7-7777-xx8-xx3-----|I



Autant j'en comprenais certaines du style Babyshambles mais celle la sad

Merci d'avance wink



#
salut!

qu'est ce que tu comprends pas???

la tab en elle m^me n'est pas différente des autres mise à part les I sur les côtés

#
Le positionnement des doigts , les petits "x" et le fait que quand je joue sa ne ressemble mais alors pas du tout au morceau icon_cheesygrin

#
x c'est les notes que tu étoufes, pour le reste ben c'est du rythme, par exemple si tu as:

---------------
---------------
---------------
--5--5-5-5-5---
--5--5-5-5-5---
--5--5-5-5-5---

tu met ton index à la 5ème case sur les trois cordes graves et tu joues le nombre de "mini barré" donc il y en a cinq
sans oublié qu'entre certaines notes il y a des temps donc il faut marqué une pause

#
D'accord merci icon_cheesygrin

Mais quand j'ai un tab comme ça


Chorus

E-----------------------------------------------------------------|
B-----------------------------------------------------------------|
G-3-3-3-3-3-3-3-3-------------------------------------------------|
D-3-3-3-3-3-3-3-3-4-4-4-4-4-4-4-4-3-3-3-3-3-3-3-3-4-4-4-4-6-6-6-6-|
A-1-1-1-1-1-1-1-1-4-4-4-4-4-4-4-4-3-3-3-3-3-3-3-3-4-4-4-4-6-6-6-6-|
E-----------------2-2-2-2-2-2-2-2-1-1-1-1-1-1-1-1-2-2-2-2-4-4-4-4-|
x2
E---------------------------------------------------------------|
B---------------------------------------------------------------|
G-3-3-3-3-3-3-3-3-----------------------------------------------|
D-3-3-3-3-3-3-3-3-4-4-4-4-4-4-4-4-6-6-6-666-6-6-666-6-6-666-6-6-|
A-1-1-1-1-1-1-1-1-4-4-4-4-4-4-4-4-6-6-6-666-6-6-666-6-6-666-6-6-|
E-----------------2-2-2-2-2-2-2-2-4-4-4-444-4-4-444-4-4-444-4-4-|


Je dois jouer que les cordes où je met les doigts ou aussi les autres ?

#
pour ce genre d'accords tu mets ton index sur la première case et sur la corde de la, ensuite tu mets ton anullaire sur la troisième case corde de ré et ton auriculaire sur la troisième case corde de sol ce qui va te donné un accord (de hard) et vu que cet accord est répété 8 fois tu le joue 8 fois et tu passe à l'autre

#
Merci icon_redface

#

nouveau message Répondre Recherche


plan Plan du Forum Débutants||Tags : linkin, park, tab, gentil, papa, folk, apporte, noyel, fender