Accordeur


nouveau message Répondre
Page 1 de 2
Recherche

#
Bonjour

Je suis un débutant a la guitare smiley-guitar et je ne comprends pas trop comment marchee l'accordeur electronique

Il a un F,Bb,Eb,C,F, je ne sais vraiment pas a quel corde ca correspond si vous pouviez me faire un shéma ce serai tres sympatique, je vous remercie

Et pous bien débuter que me conseillez vous ??(a part les cours et ce site:))

Je vous remercie maitre



#
salu
la plus grosse corde et la corde de "mi" grave sur ton acordeur se doit etre un E
ensuite la deuxième c'est la corde de "la" sur ton acordeur c'est un A puis la 3 ème corde c'est le "ré" c'est un D la 4 ème c'est le "sol" c'est un G la 5 ème c'est la corde de "si" c'est un B et la dernière c'est la corde de "mi" aigu c'est un E
PARENTAISE:
la si do ré mi fa sol
A B C D E F G

puis ba pour bien commencer jte conceille de regarder sur des cite ou nimporte ou ou tu peux aprendre la guitare c'est important de na pas commencer a aprendre la guitare ceul car on peut prendre des mauvaises abitudes sans le savoir et la on perd du temps donc le meilleur truk a fair c'est de prendre des cours.
voila j'aispère que sa va te servir a++

#
je te remercie de ta réponse mais je n'ai pas les lettres que tu me dis

moi j'ai simplement F,Bb,Eb,C,F (les "b" ils sont petits)

#
c'es quoi la marque de ton acordeur??

#
c'est un acordeur de bass ??

pascal17

Petit causeur
Jeune tabber
Petit Downloader
11 photos
Membre VIP
50 messages
Modérateur
#
franchement bizarre ton accordeur,
normalement une guitare, c'est E A D G B E

là, je vois pas comment il peut fonctionner pour une guitare

en verité, si,....
tu pourrais l'utiliser en frettant tes cordes à la 1ere case,
exemple:
corde de Mi grave (E), à la premiere case,
ca fait F... etc...

pas tres pratique!

#
non pas tres pratique, de + elle est neuve et on m'a dit que ca désacorde vite quand c'est tout neuf donc allez allez a tatons serai pas super

La marque c'est stagg (Tu-C automatic chormatic tuner)

#
Ba la je c'est pas regarde la notice il y a peut être des mode a choisir ou vréman la je c'est pas .

#
y a rien sur la notice :/

#
y a rien sur la notice :/

#
y a rien sur la notice :/

#
ba je vois va au magasin ou ils te l'ont vendu et demande leurs

#
bein sad j'habite en bretagne et mon pere me l'a pris sur Paris :/

bon bein ca fait chier :/

#
Sur jeux interdits, j'arrive a faire la mélodie sur une seule corde, mais pouvez vous m'explicer comment faut faire pour accompagner avec les autres cordes ??

C'est chacune leur tour a jouer les notes ?? c'est comment?? j'ai regardé pas mal de guitariste sur internet pour voir comment ils font mais je ne cerne pas tout à fait pouvez mexplicer comment faut il faire svp ?? je les ai vu gratouiler avec toutes leurs doigts de la main droite mais en même tps chacune leur tour ?? comment ?? maitre maitre




e||---7--------7--------7--------|--7--------5--------3--------|
b||------0--------0--------0-----|-----0--------0--------0-----|
g||*--------0--------0--------0--|--------0--------0--------0--|
d||*-----------------------------|-----------------------------|
a||------------------------------|-----------------------------|
e||---0--------------------------|--0--------------------------|



--3--------2--------0--------|--0--------3--------7--------|
-----0--------0--------0-----|-----0--------0--------0-----|
--------0--------0--------0--|--------0--------0--------0--|
-----------------------------|-----------------------------|
-----------------------------|-----------------------------|
--0--------------------------|--0--------------------------|



--12--------12--------12--------|--12--------10--------8--------|
------0---------0---------0-----|------0---------0--------0-----|
---------0---------0---------0--|---------0---------0--------0--|
--------------------------------|-------------------------------|
--------------------------------|-------------------------------|
--0-----------------------------|--0----------------------------|



--8--------7--------5--------|--5--------7--------8--------|
-----5--------5--------5-----|-----5--------5--------5-----|
--------5--------5--------5--|--------5--------5--------5--|
-----------------------------|-----------------------------|
--0--------------------------|--0--------------------------|
-----------------------------|-----------------------------|


(ce site est vraiment une source d'info c'est super)

#
SVP peut on m'explicer par rapport a jeux interdits et par rapport a l'accordeur je sens qu'elle est désacordé c'est trop chiant endesaccord3 sad sad sad sad



nouveau message Répondre
Page 1 de 2
Recherche


plan Plan du Forum Débutants||Tags : accordeur, remercie, sais, vraiment, quel, correspond, corde, electronique, marchee