Hymne americain


nouveau message Répondre
Page 1 de 2
Recherche

#
salut à tous, j'aimerais vraiment trouver l'hymne americain que fait Jimi Hendrix à Woodstock :

http://www.dailymotion.com/relevance/search/hendrix+woodstock/video/x2ru1z_jimi-...


mais je la trouve nul part, merci de m'aider =D



touf man

2 photos
#
En diré voodoo child en ralenti ^^

touf man

2 photos
#
Ah mince voodoo child ct lintro ^^ après je sais pas.

#
Le nom du morceau est Star Spangled Banner wink

#
cool ça le fait bien avec voodoo child en intro

#
moi ossi j la cherche :)
mais impossible de la trouvée...
kelkun c ou on peu la choper????

#
le mieux, c'est de se lancer..l'écouter 20 fois et puis improviser dans le meme style, a savoir gros son pourri, vibrato, dive bombings, vibe, et fond d'hymne américain icon_cheesygrin

www.brain-salad-surgery.deviantart.com
www.lukaleblond.skyblog.com
Les Sagittaires sont calmes, doués, inspirés, et en plus ils sont sympas
[img]http://img2.putfile.com/main/9/24608305297.jpg[
#
corey-le-bourrin
corey-le-bourrin a écrit :
le mieux, c'est de se lancer..l'écouter 20 fois et puis improviser dans le meme style, a savoir gros son pourri, vibrato, dive bombings, vibe, et fond d'hymne américain icon_cheesygrin


Jimi Hendrix quoi!! icon_cheesygrin icon_cheesygrin

sakatrapo

Artiste très motivé
7 photos
252 messages
#
la recette secrète est découverte! icon_cheesygrin

#
nan, mais je veux dire, chercher une tablature pour ce genre de morceau, c'est inutile dans le sens ou ca se joue vraiment avec les tripes, et qu'il suffit juste de se lacher a mort icon_cheesygrin icon_cheesygrin

www.brain-salad-surgery.deviantart.com
www.lukaleblond.skyblog.com
Les Sagittaires sont calmes, doués, inspirés, et en plus ils sont sympas
[img]http://img2.putfile.com/main/9/24608305297.jpg[
#
e-------------------------------------------------------- X2
B--------------------------------------------------------
D-----------5--9-7-5-------0-0-9-7-5-4-2-4-5-5-----------
G-5-2---2-5---------2-4-5---------------------5-2--------
A-----3-------------------------------------------3------
E--------------------------------------------------------

e--------------------------------------------------------
B--------------------------------------------------------
D-9-9-9-10-12-12-10-9-7-9-10-10-10-9-7-5-4-2-4-5---------
G------------------------------------------------2-4-5---
A--------------------------------------------------------
E--------------------------------------------------------

e------------------------------------------------------------------
B------------------------------------------------------------------
D-0-5-5-5-4-2-2-2-7-10-9-7-5-5-4----0-0-5-7-9-10-12-5-7-9-10-7-5-5-
G------------------------------------------------------------------
A------------------------------------------------------------------
E------------------------------------------------------------------

voila

#
pas de merci ? sad

leurop53

Membre Banni
1 photo
#
merci wink



nouveau message Répondre
Page 1 de 2
Recherche



Autre liens sur le site pour Jimi Hendrix : Discographie Jimi Hendrix - Tee Shirt Jimi Hendrix - Poster Jimi Hendrix
plan Plan du Forum Fans||Tags : hendrix, HENDRIX, jimi, woodstock, americain, JIMI, hymne, trouver, fait