Je cherche partition : "Geh" de Tokio Hotel


nouveau message Répondre
Recherche

#
Salut !
Je fais des efforts mais je ne la trouve nulle part: quelqu'un aurait la partition (guitarre acoustique) de "Geh" de Tokio Hotel ?
Voici le lien pour écouter la musique, au cas où quelqu'un pourrais écrire la partition, n'est-ce que le début ! http://www.youtube.com/watch?v=T0Z9gIDqR1c~~feature=related
Elle n'a pas l'air difficile à jouer..

Merci d'avance ! x)



#
Coucou !!
moi aussi je l'a cherche ...j'ai que un début mais c'est déja sa !!!

__4_____2__
___4_______
____4____3_
__________4
___________
___________
___________

smile_cool

#
Intro:
E)-5-------3----------------------------------------
B)---5----------------------------------------------
G)------5------4------------------------------------
D)---------------5----------------------------------
A)--------------------------------------------------
E)--------------------------------------------------

Couplet:
E)------------------------------------------------
B)------------------------------------------------
G)--------10101010101010--99999-------------------
D)-77777--10101010101010--99999--10101010101010--- x2
A)-77777--8-8-8-8-8-8-8---77777--10101010101010---
E)-55555------------------00000--8-8-8-8-8-8-8----

E)-5--------3-------------------------------------
B)----5-------------------------------------------
G)-------5------4---------------------------------
D)-----------------5------------------------------
A)------------------------------------------------
E)------------------------------------------------

E)------------------------------------------------
B)------------------------------------------------
G)--------10101010101010--99999-------------------
D)-77777--10101010101010--99999--10101010101010--- x2
A)-77777--8-8-8-8-8-8-8---77777--10101010101010---
E)-55555------------------00000--8-8-8-8-8-8-8----

E)--5------3---------------------------------------
B)----5--------------------------------------------
G)------5------4-----------------------------------
D)----------------5--------------------------------
A)-------------------------------------------------
E)-------------------------------------------------

Refrain:
E)------------------------------------------------
B)------------------------------------------------
G)-555-33-777-55----------------------------------
D)-555-55-777-77---------------------------------- x4
A)-333-55-555-77----------------------------------
E)-333-33-555-55----------------------------------

E)------------------------------------------------
B)------------------------------------------------
G)------------------------------------------------
D)-5-5-2/7777777----------------------------------
A)-5-5-2/7777777----------------------------------
E)-3-3-0/5555555----------------------------------

Couplet:
E)-5-------3----------------------------------------
B)----5---------------------------------------------
G)-------5-----4------------------------------------
D)----------------5---------------------------------
A)--------------------------------------------------
E)--------------------------------------------------

smiley-guitar

chipie.foxtrot

Modérateur
#
pour faire propre : en dessous des smileys ,à droite : insertion tablature ...

Intro:
E)-5-------3----------------------------------------
B)---5----------------------------------------------
G)------5------4------------------------------------
D)---------------5----------------------------------
A)--------------------------------------------------
E)--------------------------------------------------

Couplet:
E)------------------------------------------------
B)------------------------------------------------
G)--------10101010101010--99999-------------------
D)-77777--10101010101010--99999--10101010101010--- x2
A)-77777--8-8-8-8-8-8-8---77777--10101010101010---
E)-55555------------------00000--8-8-8-8-8-8-8----

E)-5--------3-------------------------------------
B)----5-------------------------------------------
G)-------5------4---------------------------------
D)-----------------5------------------------------
A)------------------------------------------------
E)------------------------------------------------

E)------------------------------------------------
B)------------------------------------------------
G)--------10101010101010--99999-------------------
D)-77777--10101010101010--99999--10101010101010--- x2
A)-77777--8-8-8-8-8-8-8---77777--10101010101010---
E)-55555------------------00000--8-8-8-8-8-8-8----

E)--5------3---------------------------------------
B)----5--------------------------------------------
G)------5------4-----------------------------------
D)----------------5--------------------------------
A)-------------------------------------------------
E)-------------------------------------------------

Refrain:
E)------------------------------------------------
B)------------------------------------------------
G)-555-33-777-55----------------------------------
D)-555-55-777-77---------------------------------- x4
A)-333-55-555-77----------------------------------
E)-333-33-555-55----------------------------------

E)------------------------------------------------
B)------------------------------------------------
G)------------------------------------------------
D)-5-5-2/7777777----------------------------------
A)-5-5-2/7777777----------------------------------
E)-3-3-0/5555555----------------------------------

Couplet:
E)-5-------3----------------------------------------
B)----5---------------------------------------------
G)-------5-----4------------------------------------
D)----------------5---------------------------------
A)--------------------------------------------------
E)--------------------------------------------------


sinon , pourquoi ne pas l'avoir mise à artistes , tab , déposer une tab ? tu aurais mis le lien sur le topic après ? wink

je joue de la guitare à six schtoumphs !
#
Hello chipie.foxtrot
Euh je débute et j'aimerai bien jouer ce morceau mais je ne comprend pas trop comment on lit cette tablature. Tu pourrai m'expliquer s'il te plait ? (A)

#
et bien déjà pour jouer ce morceau, et si tu debute, apprends à faire les barrés wink wink sans ça...........t'es mal barré icon_cheesygrin

chipie.foxtrot

Modérateur
#
26xbee a écrit :
Hello chipie.foxtrot
Euh je débute et j'aimerai bien jouer ce morceau mais je ne comprend pas trop comment on lit cette tablature. Tu pourrai m'expliquer s'il te plait ? (A)


salut...
si tu commence par le début,
tu as en section débutant tout ce qu'il faut :
http://www.partoch.com/cours/cours_guitare,133,Les+tablatures+++les+lire+et+les+...

ensuite ,wola a raison en ce sens que pour cette tablature ,il
te faudra faire des accords barrés, tu trouves aussi des explications dans
la section débutant que je t'invite à parcourir wink

je joue de la guitare à six schtroumphs
marshall63

5 photos
#
Pinaize c'est terrible ça les "debutant" partochard qui ne cherche pas a découvrir le site et ces nombreuses fonctions avant de demander quelque choses...
wink
pourtant il a tous pour être au top des site de musiques...
(non je fais pas le fayot je dit ce que je pense)

chipie.foxtrot

Modérateur
#
en plus il y a une liste de morceaux pour débuter qui est assez exhaustive....
tu as le choix,fais ton tri
http://www.partoch.com/forum/post_171376,quelques+morceaux+pour+debuter+guitare....

je joue de la guitare à six schtroumphs

nouveau message Répondre Recherche


plan Plan du Forum Tablatures||Tags : partition, quelqu, hotel, tokio, geh, aurait, guitarre, voici, acoustique