Mauvaise habitude a corriger : Aller retour strict ou "sweeping"?


nouveau message Répondre
Page 1 de 2
Recherche

#
Bonjour !

Voila j'expose mon probleme, je fais de la guitare depuis 2ans et demi déja, et je me suis rendu compte que j'avais une technique de jeux au mediator differentes des autres guitaristes la semaine derniere...
Donc quand je joue en aller retour, je ne joue pas en allé retour strict, c'est a dire que j'alterne toujours un coup en bas un coup vers le haut. Mais plutot une methode qui ressemble a du sweeping, c'est a dire que peut importe la position de mon mediator, si j'attaque une corde en dessous je l'attaquerais par le haut, et inversement si j'attaque une corde au dessus j'attaquerais celle ci par le bas...
Jusque là jamais trop eu de probleme j'arrive meme a jouer plutot rapidement meme si je m'emmele par moment avec mes coups de mediator, mais je pensais que ca venait plus de la sinchronisation a grande vitesse qui manque !
Et un ami qui est très très bon a la guitare m'a dit que ca pourrait me poser des problemes de précisions etc, vous pensez que c'est une mauvaise habitude que je dois essayer de corriger ou ca ne pose aucun probleme?

merci



#
si j'ai bien compris quand tu fais des allés retour au lieu de faire une fois en haut une fois en bas, tu fais deux ou trois fois en haut deux fois en bas c'est un peu près sa n'est ce pas???

ben disons que sur des solo très précis et rapide la synchronisation aide beaucoup mais après je vois pas ou est le problême

#
Donc en gros, si tu passes de la corde La à Ré, tu donnes deux coups en bas ? ça me parait normal, on prendrait plus de temps à utiliser le versant opposé hum

#
Hum enfaite c'est compliquer a expliquer, en gros je joue plutot comme ca :

A: attaque la corde par le bas
V : attaque par le haut

V A V V A V V A V V A V V A V A V
---------------------------------------------------7--8--10----------
-------------------------------------------8--10--------------------
------------------------------7---9---10----------------------------
---------------------7--9--10-----------------------------------------
-----------7--8--10-----------------------------------------------------
-7--8--10-----------------------------------------------------------


Alors qu'un jeu parait-il normal serait !

V A V A V A V A V A V A V A V A V

---------------------------------------------------7--8--10----------
-------------------------------------------8--10--------------------
------------------------------7---9---10----------------------------
---------------------7--9--10-----------------------------------------
-----------7--8--10-----------------------------------------------------
-7--8--10-----------------------------------------------------------.


Voial c'est peut etre plus compréensible?

#
triskell je suis d'accord avec toi enfin c'est des personnes meilleurs que moi qui m'ont expliquer ca donc je voulais savoir si ca faisait une difference niveau précision ? Parceque moi j'ai jamais vraiment réfléchi là dessus avant ca et on ma jamais dis fait de tel maniere ou de tel autre, bref tu me rassure bump

#
Il m'arrive aussi de faire comme toi mais je vois pas ou est le problême. On va pas chipoter pour un coup de médiator dans le mauvais sens. Par contre si tu connait un certain Patrick Rondat... icon_cheesygrin

syle

Artiste très motivé
21 photos
Membre VIP
349 messages
Modérateur
#
eskuz a écrit :
Hum enfaite c'est compliquer a expliquer, en gros je joue plutot comme ca :

A: attaque la corde par le bas
V : attaque par le haut

V A V V A V V A V V A V V A V A V
---------------------------------------------------7--8--10----------
-------------------------------------------8--10--------------------
------------------------------7---9---10----------------------------
---------------------7--9--10-----------------------------------------
-----------7--8--10-----------------------------------------------------
-7--8--10-----------------------------------------------------------


Alors qu'un jeu parait-il normal serait !

V A V A V A V A V A V A V A V A V

---------------------------------------------------7--8--10----------
-------------------------------------------8--10--------------------
------------------------------7---9---10----------------------------
---------------------7--9--10-----------------------------------------
-----------7--8--10-----------------------------------------------------
-7--8--10-----------------------------------------------------------.


Voial c'est peut etre plus compréensible?


En fait, la façon dont tu joues te limite forcément en vitesse, voire en fluidité.
Selon ce que tu joues, ça n'a pas vraiment une grande importance...
Et au niveau du jeu au médiator, il y a plusieurs écoles. Celle des "sweepeurs" comme Satriani, Vai... et celle des intégristes de l'aller-retour comme Al Di Meola. La technique de l'aller-retour est plus difficile, mais très précise et parfois indispensable.

Mais le jeu de guitare n'obéit pas qu'à des règles académiques. Selon la façon dont tu attaques (et le côté par lequel tu attaques) ta corde, ta note ne va pas sonner de la même manière. Ca, les Shreddeurs s'en soucient peu, mais c'est absolument capital pour d'autres styles, comme le blues, par exemple...
Dans ce cas, l'attaque du médiator sera dictée par le son que l'on veut obtenir...

I watched with glee while your kings and queens fought for ten decades for the gods they made.

Peuplez ma ville : http://saint-syle.miniville.fr
#
 Citation :
V A V V A V V A V V A V V A V A V
---------------------------------------------------7--8--10----------
-------------------------------------------8--10--------------------
------------------------------7---9---10----------------------------
---------------------7--9--10-----------------------------------------
-----------7--8--10-----------------------------------------------------
-7--8--10-----------------------------------------------------------

Si tu veux aller plus vite en jouant à la Satriani tu peux le jouer en sweep :
A V A A V A V...
---------------------------------------------------7--8--10----------
-------------------------------------------8--10--------------------
------------------------------7---9---10----------------------------
---------------------7--9--10-----------------------------------------
-----------7--8--10-----------------------------------------------------
-7--8--10-----------------------------------------------------------

makejuclo

1 photo
#
Ben moi c'est le contraire. j'ai passé du temps à maitriser le jeu en allé et retour. Lorsque je me sius penché sur le sweeping, je n'y arrivais pas car la méthode était contraire à ce que j'avais appri.
En fait il y a plusieurs méthodes et l'important est d'en maîtriser une.
L'allé et retour pour la précision. le sweeping pour la vitesse

aria35

1 photo
#
eskuz a écrit :
Hum enfaite c'est compliquer a expliquer, en gros je joue plutot comme ca :

A: attaque la corde par le bas
V : attaque par le haut

V A V A V A V A V A V A V A V A V

---------------------------------------------------7--8--10----------
-------------------------------------------8--10--------------------
------------------------------7---9---10----------------------------
---------------------7--9--10-----------------------------------------
-----------7--8--10-----------------------------------------------------
-7--8--10-----------------------------------------------------------.


Voial c'est peut etre plus compréensible?


salut!!!

ce qu'il faut savoir sur l'aller retour strict c'est déjà bien accentuer tes notes(pour le rythme et la musicalité) d'autre part j'ai pris cet exemple car il est marqué en aller reour...une fois que tu maitrise ce sens a grande vitesse joue le différemment en inversant les attaques (commence par un retour ou un aller car sur l'exemple il commence par un retour enfin bref^^ et ainsi de suite) cette technique demande beaucoup de travaille merci monsieur rondat wink mais il est important de commencer a petite vitesse et au fure et a mesure accélère bon courage

aria35

1 photo
#
elias ze a écrit :

 Citation :
V A V V A V V A V V A V V A V A V
---------------------------------------------------7--8--10----------
-------------------------------------------8--10--------------------
------------------------------7---9---10----------------------------
---------------------7--9--10-----------------------------------------
-----------7--8--10-----------------------------------------------------
-7--8--10-----------------------------------------------------------

Si tu veux aller plus vite en jouant à la Satriani tu peux le jouer en sweep :
A V A A V A V...
---------------------------------------------------7--8--10----------
-------------------------------------------8--10--------------------
------------------------------7---9---10----------------------------
---------------------7--9--10-----------------------------------------
-----------7--8--10-----------------------------------------------------
-7--8--10-----------------------------------------------------------


pour la jouer ensweeping il manque des hammer wink la tu frappe une corde pour trois case ou deux case pour la corde de si icon_cheesygrin

syle

Artiste très motivé
21 photos
Membre VIP
349 messages
Modérateur
#
makejuclo
makejuclo a écrit :

En fait il y a plusieurs méthodes et l'important est d'en maîtriser une.
L'allé et retour pour la précision. le sweeping pour la vitesse

Sauf que les purs et durs sont capables de jouer très très vite en aller-retour...
Un mec comme Al Di Meola (intégriste de l'aller retour) joue aussi vite en aller-retours que Steve Vai ou Satch en Sweeping... Et c'est assez impressionnant !
Je me souviens d'une interview ou Al Di Meola disait en substance que le sweeping, c'est pour les petis rigolos qui ne sont pas capables d'assurer en aller-retours... Et il ajoutait très diplômatiquement "la technique, c'est ce qui sépare les vrais hommes des petits enfants"... icon_cheesygrin
Attention, je ne suis pas entièrement d'accord avec lui... mais ça reste le point de vue d'un très grand guitariste...

I watched with glee while your kings and queens fought for ten decades for the gods they made.

Peuplez ma ville : http://saint-syle.miniville.fr
#
mon prof me dit que c'est super important le sens ds lequel on joue : il entend si c'est en aller ou en aller retour .... pour la rythmique et tout et tout .. hammer

#
C'est grave si je joue que en aller c'est-à-dire en attaquant par le haut ??? Sinon pour les accords je fais aller-retour

#
disons que pour certains morceaux ça peut passer mais en aller-retour tu augmentes ta vitesse et la fluidité de ton jeu
c'est donc vivement conseillé de t'entrainer...



nouveau message Répondre
Page 1 de 2
Recherche


plan Plan du Forum Débutants||Tags : retour, mediator, probleme, par, haut, joue, tres, corde, attaquerais