solo de NIRVANA come as you are


nouveau message Répondre
Recherche

#
Salut , je cherchait le solo de come as you are (accoustic) et je n'ai rien trouver qui le fait Vous avez peut etre un peut d'aide



MERCI



#
Euh...non désolé endesaccord1 mais regarde sur les autres topics avec la fonction "recherche", si tu as de la chance tu trouvera ! Bonne chance ! bump

pascal17

Petit causeur
Jeune tabber
Petit Downloader
11 photos
Membre VIP
41 messages
Modérateur
#
icon_cheesygrin




attention,
ma version est en Ré,
moi je prefere la chanter comme ca,
bcp la joue en Mi,
si c'est ton cas, tu montes tout de 2 cases

TRANSITION:
---------------------------------1--1-------- X2
--------------------------------------------
-----0----0------------2---------------------------
--2----2----2--2--1--0----0------------0--1--------
----------------------------------------------------
----------------------------------------------------

puis SOLO: (basse continu idem ci dessus)
----------------------------------------------------
----------------------------------------------------
4-7-7-9-94-4-4-7--9-94-4-4-7--9-9/11-11-9-9-7-7-0
---------------------------------------------------3
-------------------------------------------- X3
----------------------------------------------------

--------------------------------------------------
-------------------------------------------------
4-4-7--9-94-4-4-7-9-94-4-4--7--9-9/11-11-11-9--
------------------------------------------------3--3
---------------------------------------------------
---------------------------------------------------

REFRAIN: (memoria X4) BRIDGE...
INTRO X4 OUTRO: F#


edit: en cas de difficulté à lire la tab,
faire un copié,
et un coller sur un bloc-note ou word en police 'courrier news'


paulstrat87

1 photo
#
WOW pascal tu arrives a chanter en jouant come as you are ?!

j'ai beau essayer, je pense que j'arriverais jamais a synchroniser sad

pascal17

Petit causeur
Jeune tabber
Petit Downloader
11 photos
Membre VIP
41 messages
Modérateur
#
non,je ne peux pas,
j'aime bien la chanter,
mais jouer et chanter ce titre en meme temps m'est impossible..

je m'appuie sur le bassiste (LA bassiste d'ailleurs)
(et l'batteur)
je ne joue que sur les refrains et le p'tit solo...
je lui laisse jouer le reste, et c'est bien sympa...
c'est 'clair'

(un jour un bassiste m'a confié,
que si il écoute cette mélodie,
il se plante dans les phrases)

#
Salut mérci pascal tu n'arrive pas a la chanter ?? écoute la en répéte j'usqua en devenir fou tu y arriveras ! wink icon_cheesygrin icon_redface

pascal17

Petit causeur
Jeune tabber
Petit Downloader
11 photos
Membre VIP
41 messages
Modérateur
#
non,
je ne crois pas
ca fait 25 ans que je chante de facon tres tres serieuse...

sur ce titre, c'est special tu ne peux pas te concentrer à la fois
sur ce theme à la guitare,
et sur un theme different au chant!,

ou alors il faudrait un second guitariste qui assure,
pour se rattrapper quand on derape.

je dois t'avouer aussi,
que chanter come as you are,
ne represente pas une priorité absolue pour moi icon_cheesygrin
....

#
Il y a plus simple à mon sens pour faire un solo acoustique sur come as you are: Em D à jouer sur la rythmique feu de camp (BBHHB HBBH)ou truc approchant, avec transition sur le troisième bas, si mes souvenirs sont bons. Très simple à exécuter et ça sonne bien. :)


nouveau message Répondre Recherche



Autre liens sur le site pour Nirvana : Discographie Nirvana - Tee Shirt Nirvana - Poster Nirvana
plan Plan du Forum Tablatures||Tags : NIRVANA, are, you, come, solo, nirvana, cherchait, accoustic, rien