Comment accorder une guitar electrique ?


nouveau message Répondre
Recherche

#
Salut a tous quelqu'un pourrait-il m'aidait, j'ai un probleme. Je debute a la guitar et j'en est profiter pour recuperer l'ancienne gratte electrique de mon cousin mais elle est desaccorder sad quelqu'un pourrait m'aidé et me dire comment on accorde une guitar svp !! merci d'avance smile



#
Je fais pas de la gratte !
Mais j'utilise un accordeur electronique(korg) et sa marche bravo
Sinon tu peux aller voire un prof de guitare et il te l'accorde gratos mais apres va falor aller le voir toutes les semaines(et oui ca se deregle) icon_cheesygrin

P.S: il y a aussi des accordeurs virtuelles(mais j'aime pas trop). icon_redface

#
tu vas dans un magasin de musique et si t'as de la chance il en ont(des accordeurs electroniques) , et sinon tu vas dans un magasin de gratte et la tu devrais être sûre de trouver ton bonheur...je dis électronique parce-que y'en a comme moi qui , pour l'instant , n'arrive pas a tout a fait a accorder a l'oreille....
après pour l'untilisation , c'est expliqué avec un manuel...et même sans lire le manuel , c'est vraiment pas galère du tout^^ chanteur

sandinista

Petit causeur
Mega Tabber
Mangeur de Tabs
6 photos
17 messages
#
Sur ce site, en haut à droite dans la boite d'outil, tu y trouvera un accordeur trés sympa.
http://www.tabs4acoustic.com/index.php

Salut à + smiley-guitar

#
Pareil que les autres, j'utilise un accordeur électrique car en tant que débutante j'ai pas forcément toujours l'oreille...
C'est très pratique et très simple d'utilisation.
Bon courage.

#
Bonjour,

J'ai une petite astuce à vous donner. :)

Mais pour cela il faut que la 6ème corde de votre guitare soit accordée. :P
Une fois que votre 6ème corde est accordée, faites :

E------------------------
B------------------------
G------------------------
D------------------------
A------------------------
E-5----------------------

C'est le son "Si(A)"

Faites le même son avec la 5ème corde mais sans rien appuyer.

Donc vous obtenez le son "La(A)" avec votre 5ème corde, votre 5ème corde est désormais accordée.

Quand votre 5ème corde est accordée, faites :

E------------------------
B------------------------
G------------------------
D------------------------
A-5----------------------
E------------------------

Vous obtenez le son "Ré(D)"

Faites le même son avec la 4ème corde sans rien appuyer.

Donc vous obtenez le son "Ré(D)" avec votre 4ème corde, votre 4ème corde est désormais accordée.

Après que votre 4ème corde soit accordée, faites :

E------------------------
B------------------------
G------------------------
D-5----------------------
A------------------------
E------------------------

Vous obtenez le son "Sol(G)"

Faites le même son avec la 3ème corde sans rien appuyer.

Donc vous obtenez le son "Sol(G)" avec votre 3ème corde, votre 3ème corde est désormais accordée.

Après que votre 3ème corde soit accordée, faites :

E------------------------
B------------------------
G-4----------------------
D------------------------
A------------------------
E------------------------

Vous obtenez le son "Si(Bm)"

Faites le même son avec la 2ème corde sans rien appuyer.

Donc vous obtenez le son "Si(Bm)" avec votre 2ème corde, votre 2ème corde est désormais accordée.

Après que votre 2ème corde soit accordée, faites :

E------------------------
B-5----------------------
G------------------------
D------------------------
A------------------------
E------------------------

Vous obtenez le son "Fa(F)"

Faites le même son avec votre 1ère corde, votre 1ère corde est désormais accordée.

Et voilà votre guitare est accordée.

Si vous ne comprenez pas quelque chose : david_guitarz@hotmail.fr

#
davidthebossof93 a écrit :
Bonjour,

J'ai une petite astuce à vous donner. :)

Mais pour cela il faut que la 6ème corde de votre guitare soit accordée. :P
Une fois que votre 6ème corde est accordée, faites :

E------------------------
B------------------------
G------------------------
D------------------------
A------------------------
E-5----------------------

C'est le son "La (A)"

Faites le même son avec la 5ème corde mais sans rien appuyer.

Donc vous obtenez le son "La(A)" avec votre 5ème corde, votre 5ème corde est désormais accordée.

Quand votre 5ème corde est accordée, faites :

E------------------------
B------------------------
G------------------------
D------------------------
A-5----------------------
E------------------------

Vous obtenez le son "Ré(D)"

Faites le même son avec la 4ème corde sans rien appuyer.

Donc vous obtenez le son "Ré(D)" avec votre 4ème corde, votre 4ème corde est désormais accordée.

Après que votre 4ème corde soit accordée, faites :

E------------------------
B------------------------
G------------------------
D-5----------------------
A------------------------
E------------------------

Vous obtenez le son "Sol(G)"

Faites le même son avec la 3ème corde sans rien appuyer.

Donc vous obtenez le son "Sol(G)" avec votre 3ème corde, votre 3ème corde est désormais accordée.

Après que votre 3ème corde soit accordée, faites :

E------------------------
B------------------------
G-4----------------------
D------------------------
A------------------------
E------------------------

Vous obtenez le son "Si(B )"

Faites le même son avec la 2ème corde sans rien appuyer.

Donc vous obtenez le son "Si(B )" avec votre 2ème corde, votre 2ème corde est désormais accordée.

Après que votre 2ème corde soit accordée, faites :

E------------------------
B-5----------------------
G------------------------
D------------------------
A------------------------
E------------------------

Vous obtenez le son "Mi(E) "

Faites le même son avec votre 1ère corde, votre 1ère corde est désormais accordée.

Et voilà votre guitare est accordée.

Si vous ne comprenez pas quelque chose : david_guitarz@hotmail.fr


déterrage déja, et en plus c'est faux hammer

jeguil

Artiste participatif
9 photos
132 messages
#
Bon, il faut lui pardonner, il est jeune et il débute...
Le problème c'est qu'il induit les autres débutants en erreur aussi!!! endesaccord1
Ba, ça lui passera. Mais quand on poste il faut être sûr de ce qu'on affirme et là c'est pas gagné!

A+

Ce n'est pas en sciant que Léonard devint scie...
#
Ou sinon on peut allez Ici =D

http://www.partoch.com/cours/cours_guitare,134,Accorder+sa+guitare.html

le plus dure est de trouver le la mais après c'simple, même si on a pas l'oreille sa nous entraine et on est sur de pas avoir 5 tours de molette en trop =D


nouveau message Répondre Recherche


plan Plan du Forum Débutants||Tags : guitar, comment, quelqu, pourrait, electrique, profiter, recuperer, debute, probleme