tab sweet child o mine guns n roses


nouveau message Répondre
Recherche

#
voila jaimerait faire le sublime solo de slash dans guns n roses et je voudrait savoire se que signifi les h les p etc merci



pascal17

Petit causeur
Jeune tabber
Petit Downloader
11 photos
Membre VIP
43 messages
Modérateur
#
tiens:
bon courage,
pour les pull off et les hammer:
regarde sections debutants...

|--17~~~~~-15-|-14h15p14---------15--|-14h15p14-----------12---14-
|-------------|----------17~~~~~-----|----------17-16-------------
|-------------|----------------------|----------------------------
|-------------|----------------------|----------------------------
|-------------|----------------------|----------------------------
|-------------|----------------------|----------------------------
w/Rhy.Fig.3(2 times)
Am Em C
||--------------------------------|--------------------------------|-------
||--15^-----12--------------------|--------------------------13-12-|--(12)-
||--------------14^-----12--11h12-|----------------11--12-14-------|-------
||--------------------------------|----14~~~~-14-------------------|-------
||--------------------------------|--------------------------------|-------
||--------------------------------|--------------------------------|-------

-------------------------------|-----------------------------|---------15^-
----13p12/10~~~~----13^--------|--13-----12--12~~~~~~~~~~12^-|-------------
-------------------------------|-----------------------------|-----14------
-------------------------------|-----------------------------|-------------
-------------------------------|-----------------------------|-------------
-------------------------------|-----------------------------|-------------
Em C B7 Am
--------------------------------------------|-------------------|
--7^----------------7^----------------------|-------------------|
------9---9~~~~~~~~-------9---9~~~~--8^-----|--8/11---------11^-|
--------------------------------------------|-------------------|
--------------------------------------------|-------------------|
--------------------------------------------|-------------------|
Em C
|----------------------------|------------------------|--------------------|
|----------------------------|------------------------|--------------------|
|-----9----------------------|--9~~~~~~~~~~~~---7h8p7-|---9~~~~~----8^-----|
|---------9^-------7-------9-|------------------------|--------------------|
|----------------------------|------------------------|--------------------|
|----------------------------|------------------------|--------------------|
B7 A5
|-------------------------------|--------------------------|
|--8---------/11---------9^-----|--9~~~~~~~~~~~~~~~~~~~~~~-|
|-------------------------------|--------------------------|
|-------------------------------|--------------------------|
|-------------------------------|--------------------------|
|-------------------------------|--------------------------|

|---------|--------------7-8p7--11p7-8-11-12/14-11-12-|-14/15-12-14-15p14-12----
|---------|--7^---7-10^-------------------------------|-------------------------
|---8---9-|-----9-------------------------------------|-------------------------
|---------|-------------------------------------------|-------------------------
|---------|-------------------------------------------|-------------------------
|---------|-------------------------------------------|-------------------------
w/Wah Wah w/Rhy.Fig4
Em E F#
----14p11--12h14p12------17-----|--------------------------------------|
-15------------------15-----15^-|--15^-----15^~~~~15^~~~~~15^-15p12----|
--------------------------------|-----------------------------------14-|
--------------------------------|--------------------------------------|
--------------------------------|--------------------------------------|
--------------------------------|--------------------------------------|

G5 A5 B5
|----------------------------------------|------------------------|
|--15^-----15^~~~~~~~~~~~~~~~~15^p12-----|--17^-----17^~~~~~--17^-|
|-------------------------------------14-|--------------------17^-|
|----------------------------------------|------------------------|
|----------------------------------------|------------------------|
|----------------------------------------|------------------------|
Rhy.Fll 1
___________________________________________________________________
|-----------------0-----------------|-------------0---------------|
|---------------------1-------------|-----------------1-----------|
|-------------2-----------2-------2-|---------2----------2--------|
|---------2-------------------2-----|------2----------------------|
|-----0-----------------------------|--0--------------------------|
|-----------------------------------|------------------------3--2-|
___________________________________________________________________


C5 D5 G5 Em
|-------------15--------------------|----------------------12-----------|
|--17^-------------17^-------17^p15-|--15p17~~~~~~~~~15^--------15---12-|
|-----------------------------------|-----------------------------------|
|-----------------------------------|-----------------------------------|
|-----------------------------------|-----------------------------------|
|-----------------------------------|-----------------------------------|
G5 A5 B5
|---------------------------------|------------------------15------------|
|---------------------------------|------------------------15--------15^-|
|----14^--14p12--14~~~~~-12---14^-|--14--12---14--12---14^---14---12-14^-|
|---------------------------------|--------------------------------------|
|---------------------------------|--------------------------------------|
|---------------------------------|--------------------------------------|
C5 D5 G5
|--15----15-------15---------------------------|-------------------------
|--15----15-----------15-----------------------|-------------------------
|----14^---14^-----------14^p12-----14p12-x--x-|--12^--------------------
|-------------------------------14--------x--x-|----------14p12-14--x-x--
|----------------------------------------------|-------------------------
|----------------------------------------------|-------------------------
G5 A5
-------------|---------------------------------------|-----------------------
-------------|---------------------------------------|-----------------------
-12p14h12----|--12^----------------------12h14p12----|--12-12-------14-14p12-
----------14-|---------14p12-14~~~~--x-x----------14-|--------14p12----------
-------------|---------------------------------------|-----------------------
-------------|---------------------------------------|-----------------------
B5 C5 D5 G5
-----------------------|--12-12------15-15p12--15---14-----12h15p12----|
--12-12-------15-15p12-|--------15p12-------------------15----------15-|
--------14p12----------|-----------------------------------------------|
-----------------------|-----------------------------------------------|
-----------------------|-----------------------------------------------|
-----------------------|-----------------------------------------------|
Em G5
|-----12-----------12-----------12----------12-------|-----12----------12-
|-15^----15p12--------15p12-15^----15p12-------15p12-|--15^--15p12--------
|--------------14^----------------------14^----------|-------------14^----
|----------------------------------------------------|--------------------
|----------------------------------------------------|--------------------
|----------------------------------------------------|--------------------
A5
----------12-----------12-------15^-|--15^---
-15p12-15^--15p12----12---15p12-----|--------
------------------14^---------------|--------
------------------------------------|--------
------------------------------------|--------
------------------------------------|--------
B5 C5 D5
--15~~~~~


pascal17

Petit causeur
Jeune tabber
Petit Downloader
11 photos
Membre VIP
43 messages
Modérateur
#
oh zut, il apparait mal,
est qu'un modo peut arranger ca?

ou passe moi ton mail,
je dois avoir le backing track.....

philarmonie

5 photos
#
corrigé wink

quand tu poses une tabalture sur le forum il faut la mettre entre les bornes [tab] [ /tab], sinon elle est décalée (c'est lié au changement de police de caractères il me semble)

pascal17

Petit causeur
Jeune tabber
Petit Downloader
11 photos
Membre VIP
43 messages
Modérateur
#

nouveau message Répondre Recherche


plan Plan du Forum Tablatures||Tags : les, roses, guns, child, jaimerait, voila, sweet, mine, tab