probleme pour jouer karma police de radiohead


nouveau message Répondre
Recherche

#
salut a tous ! comme vous le savez , cette musique est plutot bien mais on ne peut trouver une partition potable, que ce soit guitar pro ou power tab endesaccord3
je voudrais la jouer a l'oreille, mais je connais meme pas les accords! si vous pouviez les dire ici , sa serait cool
genre vous dites : Am, D .. apres jme débrouille avec un dico des accords
merci !

pis si vous avez le courage vous pouvez rentrer + dans les details de la musique icon_cheesygrin



#
shazam, icon_cheesygrin
1. Intro(Couplet) / Intro(Verse)
e------0-------0-------0-------3-------0-------1------
b------1-------1-------0-------3-------1-------1------
g------2-------2-------0-------0-------2-------2------
d------2-------0-------2-------0-------2-------3------
a--0---------------2---2-------2---0-------3---3---2--
e----------2-------0-----2-3---------------1-------0--

e-0-------3-
b-0-------3-
g-0-------0-
d-2-------0-
a-2-------2-
e---2-3-----

e------0-------2-------3---------------0-------0------
b------1-------3-------3---1---1---1---1-------1---2--
g------2-------2-------0---0---0---2---2---2---2---3--
d------2---0---0-------0---2---2---2---2---2---2---3--
a--0-------------------2---3---2---0---0---0---0---1--
e------------------3----------------------------------

e-1---2---3-2--
b-2---3---3-3--
g-3---2---2-2--
d-3---0---0-0--
a-1------------
e--------------

--------------------------------------------------------------------------------

2. Refrain / Refrain
{======== 3fois/3times =========}
e------0-------2-------3-------2-------0-------0---2--
b------1-------3-------3-------2-------1-------1---3--
g--0---0-------2-------4-------3---0---0---0---0---4--
d--2---2---0-------5---5---4---4---2---2---2---2---4--
a--3---3-----------5---5---4---4---3---3---3---3---2--
e------------------3---3---2---2----------------------

e-2---2---2--
b-3---3---3--
g-4---2---2--
d-4---0---0--
a-2----------
e------------

--------------------------------------------------------------------------------
3. Post-refrain / Post-refrain
e------2---2---2-------3---2---2-------3---2---2------
b------3---3---3-------3---3---3-------3---3---3------
g--4---4---2---2-------0---2---2-------0---2---2------
d--4---4---0---0---0---0---0---0---0---0---0---0------
a--2---2-----------2---2-----------2---2-----------2--
e------------------3---3-----------3---3-----------0--

e-0-------0--
b-3-------3--
g-1-------1--
d-2-------2--
a-2---2---2--
e-0---0---0--

--------------------------------------------------------------------------------
4. Composition du morceau / Form
1 fois l'intro / once intro
2 fois le couplet / twice verse
1 fois le refrain / once refrain
1 fois le couplet / once verse
1 fois le refrain / once refrain
6-7 fois le post-refrain / 6-7 times post-refrain
maintenant smiley-guitar

#
je connais la guitare, je cherche le piano ..

#
Et ca marche en faisant Lam, Mim, Sol, Lam, Fa, Mim, Sol, ect. ?
Quoique j'ai entendu dire que les mineurs n'existaient pas au piano, donc je dis ca je dis rien (et en augmentant d'un ton et demi le mineur ?)


#
Pour jouer karma police au synthé,un conseil,telecharge le logiciel band in a box (version 2005),c'est gratuit et ca mange pas de pain,puis essaye de trouver karma police.mid ,ensuite tu ouvre ce dernier fichier sur band in a box,et ca te montre quelles notres jouer...normalement...
Sinon accroche toi,parce que c'est pas facile icon_redface

#
claroo, pour te rassurer les accords en mineur EXISTENT bien en piano.
Exemple simple sur do, l'accord majeur sera do-mi-sol-do, tandis qu'en mineur ce sera do-mi bémol-sol-do et 7e de dominante (accord de 7e pour etre claire ^^) sera do-mi-sol-si bémol. En fait toutes les formes de l'accord sont jouables sur un clavier, heureusement ! Le piano est un instrument comme les autres après tout, avec tous les 1/2 tons necessaires à la pratique...
Apres, des accords bruts, on passe à l'arrangement, l'impro, pourquoi pas...

#
mtc auraistu un lien pour ce logiciel qui me semble des plus intéressant wink

#
moi pour jouer karma police, je joue les memes accords qu'a la guitare.c'est a dire:
pour le couplé: lam fa mim sol, et a la fin, lam sim ré
pour le refrain( this is what you'll get...):do ré sol fa
Et pour la fin(and for a minute there...): sim ré sol ré sol ré mi7(2 fois)
ben voila.J'avoue c'est pas très précis mais vu que je joue tout a l'oreille...


nouveau message Répondre Recherche


plan Plan du Forum Clavier||Tags : les, jouer, musique, accords, guitar, pro, soit, power, tab