tablature Ska-P


nouveau message Répondre
Recherche

#
je cherche la tablature de Ska-p : "cannabis" si qqun pouvait trouver ca pour moi ce srait sympas smiley-guitar
(PS au format TXT SVP)



#
Il n'y a plus que du format texte de tout façon smyleybleu

#
C'est gentil mais ca m'aide pas trop, merci quand meme

#
Je sais ... essaie de tapper dans Google "Tab Ska-p cannabis"
Je ne peux pas plus t'aider.

#
J'ai deja essayer et j'ai rien trouver de tres convaiquant, mais je ne desespere pas 8-8

#
oh ? hum Rien de convainquant ?

Je vais jetter un oeil.

#
J'ai trouvé ça, ça t'irais ?

CANNABIS - SKA-P
from the album "El Vals del Obrero"







Verse: _________________
| 1.
G D C
1 + 2 + 3 + 4 + 1 + 2 + 3 + 4 + 1 + 2 + 3 + 4 + 1 + 2 + 3 + 4 +
|---3---3---3---3-|---5---5---5---5-|---3---3---3---3-|---3---3-3-------|
|*--3---3---3---3-|---7---7---7---7-|---5---5---5---5-|---5---5-5------*|
|---4---4---4---4-|---7---7---7---7-|---5---5---5---5-|---5---5-5-------|
|-----------------|-----------------|-----------------|-----------------|
|*----------------|-----------------|-----------------|----------------*|
|-----------------|-----------------|-----------------|-----------------|

_________________
| 2.
C G D C G D
1 + 2 + 3 + 4 + 1 + 2 + 3 + 4 + 1 + 2 + 3 + 4 + 1 + 2 + 3 + 4 +
|---3---3-3-------|-3-------5-------|---------3-------|-3-------5-------|
|---5---5-5-------|-3-------7-------|---------5-------|-3-------7-------|
|---5---5-5-------|-4-------7-------|---------5-------|-4-------7-------|
|-----------------|-----------------|-----------------|-----------------|
|-----------------|-----------------|-----------------|-----------------|
|-----------------|-----------------|-----------------|-----------------|




Interlude:
C G D
1 + 2 + 3 + 4 + 1 + 2 + 3 + 4 +
|-3---3---3-3-x-3---3---3---3-3-x-|-5---5---5-5---5---5-5-5---5-5---|
|-5---5---5-5-x-3---3---3---3-3-x-|-7---7---7-7---7---7-7-7---7-7---|
|-5---5---5-5-x-4---4---4---4-4-x-|-7---7---7-7---7---7-7-7---7-7---|
|---------------------------------|---------------------------------|
|---------------------------------|---------------------------------|
|---------------------------------|---------------------------------|



Chorus:
G C D
1 + 2 + 3 + 4 + 1 + 2 + 3 + 4 +
|---3---3---3---3-|---5---5---5---5-|
|---3---3---5---5-|---7---7---7---7-|
|---4---4---5---5-|---7---7---7---7-|
|-----------------|-----------------|
|-----------------|-----------------|
|-----------------|-----------------|



Outro (w/distortion):
G D C
1 + 2 + 3 + 4 + 1 + 2 + 3 + 4 +
|-----------------|-----------------|
|-----------------|-----------------|
|---------7-7-7-7-|-5---5-5-----5-5-|
|-5-5-5-5-7-7-7-7-|-5---5-5-----5-5-|
|-5-5-5-5-5-5-5-5-|-3---3-3-----3-3-|
|-3-3-3-3---------|-----------------| (3x)
LE- GALI - ZACION!


(4th time)
G D C D
1 + 2 + 3 + 4 + 1 + 2 + 3 + 4 + 1 + 2 + 3 + 4 +
|-----------------|-----------------|-----------------|
|-----------------|-----------------|-----------------|
|---------7-7-7-7-|-5---5-5-----5-5-|-5---5-5-----7-7|
|-5-5-5-5-7-7-7-7-|-5---5-5-----5-5-|-5---5-5-----7-7|
|-5-5-5-5-5-5-5-5-|-3---3-3-----3-3-|-3---3-3-----5-5|
|-3-3-3-3---------|-----------------|-----------------|






#
Merci beaucoup ; vraiment chapeau bravo

#
De rien wink
Par contre je n'avais pas vu que l'affichage avait un peu caffouillé, à la place des "plus" il faut lire le signe "+"
Enfin ce n'est pas bien grave, c'est juste pour indiquer le rythme, dans ce cas là il s'agirait de croches ... mais fais le comme tu le sens smile

#
#
quelqu'un orer t'il la tablature de knocking on heavens door si oui pourier vous me la donner sa seré sympa merci smiley-guitar smiley-guitar

#
merci je v voir tt sa razz

#
francois18_1 a écrit :
merci je v voir tt sa razz

Je t'en pris. Eclate toi bien !


nouveau message Répondre Recherche


plan Plan du Forum Tablatures||Tags : tablature, ska-p, pouvait, qqun, cannabis, cherche, trouver, moi, svp