Cherche Tab Zetsubou Billy


nouveau message Répondre
Recherche

#
Bonjour à tous, comme indiqué sur le titre du post j'ai fait une dizaine de site de tab de toute langue à la recherche de cette tablature (Titre de musique du groupe japonais "Maximum The Hormone").

J'ai reussi à avoir une seul tab et elle faite pour GuitarPro 4, j'ai la 5e version "PRO" et le log me dit que mon logiciel n'est pas assez récent pour la lire hum , en résumé j'en recherche une ecrite sur un bon vieu wordpad lol :)

Si une personne aurait par hasar en sa possession la tab ou l'aurai vu quelque part, je suis preneur wink

Merci d'avance les gens maitre



monoboule

1 photo
#
#
Yep exactement celle là wink Et c'est la meme sur plusieur site. Mon seul problème c'est que je ne peux pas la déchifré vu que guitar Pro ne la lis pas et que je ne l'ai pas en format texte -_-

#
Je viens de la télécharger et chez moi elle s'ouvre sans problème en utilisant la dernière version de guitar pro.

#
Meme probleme chez moi ... guitar pro refuse de l'ouvrir

#
lu je vouller vou demantder si il existe pas des tablature de gentaro satomaru

#
Hi! it's my first tab, so I hope everything is OK.

I've dropped C the 6th string after tuning the guitar in D. *=Palm Mute ~ = let ring

INTRO --> Verse 1
D|---------------------|-----|--------------------------------------------------------|
A|---------------------|-----|--------------------------------------------------------|
F|--------4-4----------|-----|----------10---------10---------10---------10--------8--|
E|---3--3------3-3-6---|-x10-|-------10----10---10----10---10----10---10----10---8----|
G|---3--3------3-3-6---|-----|-----8----------8----------8----------8----------6------|
C|---3--3------3-3-6---|-----|--------------------------------------------------------|
* *


D|------------------------------------------------------------------------------------|
A|------------------------------------------------------------------------------------|
F|----------8-------8-------8-------6-------6-------6-------6-------3-------3-------6-|
E|----8---8---8---8---8---8---8---6---6---6---6---6---6---6---6---3---3---3---3---6---|
G|------6-------6-------6-------4-------4-------4-------4-------1-------1-------4-----|
C|------------------------------------------------------------------------------------|

--> Verse 2
D|------------------------------------------------------------------------------------|
A|------------------------------------------------------------------------------------|
F|---6-----/-8-8-8------------------------------------10-10-10------------------------|
E|-----6---/-8-8-8-----10---10---10---10---10---10----10-10-10----4---4---4---4---4---|
G|-------4-/-6-6-6---8----8----8----8----8----8----8--8--8--8---6---6---6---6---6---6-|
C|------------------------------------------------------------------------------------|
* * * * * * * * * * * *


D|------------------------------------------------------------------------------------|
A|------------------------------------------------------------------------------------|
F|-------4-4-4----------------------------6-6-6--3-3-3-3-3-3--6-6-6--8-8-8------------|
E|---4---4-4-4----6---6---6---6---6---6---6-6-6--3-3-3-3-3-3--6-6-6--8-8-8---3--3-3---|
G|-----6-6-6-6--4---4---4---4---4---4---4-4-4-4--1-1-1-1-1-1--4-4-4--6-6-6---3--3-3---|
C|---------------------------------------------------------------------------3--3-3---|
* * * * * * * * * *
--> Pre-Chorus
D|--------|-------------------|-------------------------------------------------------------------|
A|--------|-------------------|-------------------------------------------------------------------|
F|--------|-------------------|-------------------------------------------------------------------|
E|---3 ~ -|--x2--6--6-6--6 ~ -|--x2----8-8-8-8-8-8----11-11-11-11-11-11----13-13-13-13-13-13-13---|
G|---3 ~ -|------6--6-6--6 ~ -|--------8-8-8-8-8-8----11-11-11-11-11-11----13-13-13-13-13-13-13---|
C|---3 ~ -|------6--6-6--6 ~ -|--------8-8-8-8-8-8----11-11-11-11-11-11----13-13-13-13-13-13-13---|
* *

-> Chorus
D|------------------------------------------------------------------------------------|
A|------------------------------------------------------------------------------------|
F|-------------------6-6-6--8-8-8--10-10-10---------6-6-6--8-8-8--10-10-10-10-13-15---|
E|---13-13-13 ~ -----6-6-6--8-8-8--10-10-10--6-6-6--6-6-6--8-8-8--10-x--x--x--x--x----|
G|---13-13-13 ~ -----4-4-4--6-6-6--8--8--8---6-6-6--4-4-4--6-6-6--8--8--8--8--11-13---|
C|---13-13-13 ~ -----------------------------6-6-6------------------------------------|



D|------------------------------------------------------------------------------------|
A|------------------------------------------------------------------------------------|
F|---6-6-6--8-8-8--10-10-10---------6-6-6--8-8-8--10-10-10--6 ~ -8 ~ -10-10-10-10-10--|
E|---6-6-6--8-8-8--10-10-10--6-6-6--6-6-6--8-8-8--10-10-10--6 ~ -8 ~ -10-10-10-10-10--|
G|---4-4-4--6-6-6--8--8--8---6-6-6--4-4-4--6-6-6--8--8--8---4 ~ -6 ~ -8--8--8--8--8---|
C|---------------------------6-6-6----------------------------------------------------|
* * *

INTRO --> Verse 1
D|---------------------|-----|--------------------------------------------------------|
A|---------------------|-----|--------------------------------------------------------|
F|--------4-4----------|-----|----------10---------10---------10---------10--------8--|
E|---3--3------3-3-6---|-x10-|-------10----10---10----10---10----10---10----10---8----|
G|---3--3------3-3-6---|-----|-----8----------8----------8----------8----------6------|
C|---3--3------3-3-6---|-----|--------------------------------------------------------|
* *


D|------------------------------------------------------------------------------------|
A|------------------------------------------------------------------------------------|
F|----------8-------8-------8-------6-------6-------6-------6-------3-------3-------6-|
E|----8---8---8---8---8---8---8---6---6---6---6---6---6---6---6---3---3---3---3---6---|
G|------6-------6-------6-------4-------4-------4-------4-------1-------1-------4-----|
C|------------------------------------------------------------------------------------|

--> Verse 2
D|------------------------------------------------------------------------------------|
A|------------------------------------------------------------------------------------|
F|---6-----/-8-8-8------------------------------------10-10-10------------------------|
E|-----6---/-8-8-8-----10---10---10---10---10---10----10-10-10----4---4---4---4---4---|
G|-------4-/-6-6-6---8----8----8----8----8----8----8--8--8--8---6---6---6---6---6---6-|
C|------------------------------------------------------------------------------------|
* * * * * * * * * * * *


D|------------------------------------------------------------------------------------|
A|------------------------------------------------------------------------------------|
F|-------4-4-4----------------------------6-6-6--5-5-5-5-5-5--6-6-6--8-8-8------------|
E|---4---4-4-4----6---6---6---6---6---6---6-6-6--5-5-5-5-5-5--6-6-6--8-8-8---3--3-3---|
G|-----6-6-6-6--4---4---4---4---4---4---4-4-4-4--3-3-3-3-3-3--4-4-4--6-6-6---3--3-3---|
C|---------------------------------------------------------------------------3--3-3---|
* * * * * * * * * *
--> Pre-Chorus
D|--------|-------------------|-------------------------------------------------------------------|
A|--------|-------------------|-------------------------------------------------------------------|
F|--------|-------------------|-------------------------------------------------------------------|
E|---3 ~ -|--x2--6--6-6--6 ~ -|--x2----8-8-8-8-8-8----11-11-11-11-11-11----13-13-13-13-13-13-13---|
G|---3 ~ -|------6--6-6--6 ~ -|--------8-8-8-8-8-8----11-11-11-11-11-11----13-13-13-13-13-13-13---|
C|---3 ~ -|------6--6-6--6 ~ -|--------8-8-8-8-8-8----11-11-11-11-11-11----13-13-13-13-13-13-13---|
* *

-> Chorus
D|------------------------------------------------------------------------------------|
A|------------------------------------------------------------------------------------|
F|-------------------6-6-6--8-8-8--10-10-10---------6-6-6--8-8-8--10-10-10-10-13-15---|
E|---13-13-13 ~ -----6-6-6--8-8-8--10-10-10--6-6-6--6-6-6--8-8-8--10-x--x--x--x--x----|
G|---13-13-13 ~ -----4-4-4--6-6-6--8--8--8---6-6-6--4-4-4--6-6-6--8--8--8--8--11-13---|
C|---13-13-13 ~ -----------------------------6-6-6------------------------------------|



D|-----------------------------------------------------------------------------------------|
A|-----------------------------------------------------------------------------------------|
F|---6-6-6--8-8-8--10-10-10---------6-6-6--8-8-8--10-10-10-10----6 ~ -8 ~ -10-10-10-10-10--|
E|---6-6-6--8-8-8--10-10-10--6-6-6--6-6-6--8-8-8--10-10-10-10----6 ~ -8 ~ -10-10-10-10-10--|
G|---4-4-4--6-6-6--8--8--8---6-6-6--4-4-4--6-6-6--8--8--8--8-----4 ~ -6 ~ -8--8--8--8--8---|
C|---------------------------6-6-6---------------------------------------------------------|
* * * *

->Outro
D|------------------------------------------------------------------------------------|
A|------------------------------------------------------------------------------------|
F|---10-10-10-10-10-10----------------------------------------------------------------|
E|---10-10-10-10-10-10------------------------------------------------3-3-------------|
G|---8--8--8--8--8--8-----------------------------0-0-----------------3-3-------------|
C|-----------------------------3-2--3-2-2--3-2--3-----3-2--3-22--3-2--3-3-------------|
* * * * * *

->Bass continues with the same
D|---------------------------------------------------|---------------------------------|
A|---------------------------------------------------|---------------------------------|
F|---------------------------------------------------|---------------------------------|
E|---3-2--3-2-2--3-2--3--4-4--3-2--3-2-2--3-2--3-7-7-|-x2------------------------------|
G|---3-2--3-2-2--3-2--3--4-4--3-2--3-2-2--3-2--3-7-7-|---------------------------------|
C|---3-2--3-2-2--3-2--3--4-4--3-2--3-2-2--3-2--3-7-7-|---------------------------------|


-> Riff
D|------------8---6------------8---6---8/11--------8---6------------8---10-11---------|
A|--------------9---13-11-9------9---9---------------9---13-11-9----10--13-14---------|
F|------11-----------------------------------11------------------11-------------------|
E|---------11---------------11------------------11------------------------------------|
G|------------------------------------------------------------------------------------|
C|------------------------------------------------------------------------------------|



D|----------------------------------------------------|--------------------------------|
A|----------------------------------------------------|--------------------------------|
F|----------------------------------------------------|--------------------------------|
E|----3-2--3-2-2--3-2--3-2-2--3-2--3-2-2--3-2--3-2----|--x2----------------------------|
G|----3-2--3-2-2--3-2--3-2-2--3-2--3-2-2--3-2--3-2----|--------------------------------|
C|----3-2--3-2-2--3-2--3-2-2--3-2--3-2-2--3-2--3-2----|--------------------------------|
* * * * * * * *


D|-----------------------------------------------------|--------------------------------|
A|-----------------------------------------------------|--------------------------------|
F|-----------------------------------------------------|--------------------------------|
E|----3-2--3-2-2--3-2--3-2-2--3-2--3-2-2--3-2--3-7-7---|--x2---3 ~ -3-3-3--6 ~ --8-8----|
G|----3-2--3-2-2--3-2--3-2-2--3-2--3-2-2--3-2--3-7-7---|-------3 ~ -3-3-3--6 ~ --8-8----|
C|----3-2--3-2-2--3-2--3-2-2--3-2--3-2-2--3-2--3-7-7---|-------3 ~ -3-3-3--6 ~ --8-8----|
* * * * * *



D|---------------------------------------------------------------------------------------|
A|---------------------------------------------------------------------------------------|
F|---------------------------------------------------------------------------------------|
E|----11-11--13-|--------------11--------13--------15------6--------11-------13-------15-|
G|----11-11--13-|-x9--------11--------13--------15-------6-------11-------13-------15----|
C|----11-11--13-|--------11--------13--------15--------6------11-------13-------15-------|


-> Chorus
D|-------------------------------------------------------------------------------------|
A|-------------------------------------------------------------------------------------|
F|--------------------6-6-6--8-8-8--10-10-10---------6-6-6--8-8-8--10-10-10-10-10-10---|
E|--------------------6-6-6--8-8-8--10-10-10--6-6-6--6-6-6--8-8-8--10-10-10-10-10-10---|
G|---3-3-33-3---------4-4-4--6-6-6--8--8--8---6-6-6--4-4-4--6-6-6--8--8--8--8--8--8----|
C|---3-3-33-3---------------------------------6-6-6------------------------------------|
* * ** *


D|------------------------------------------------------------------------------------|
A|------------------------------------------------------------------------------------|
F|---6-6-6-6-6--8-8-8-8-8--5-5-5-5-5--10-10-8-10-10-10--------------------------------|
E|---6-6-6-6-6--8-8-8-8-8--5-5-5-5-5--10-10-8-10-10-10--------------------------------|
G|---4-4-4-4-4--6-6-6-6-6--3-3-3-3-3--8--8--6-8--8--8---------------------------------|
C|------------------------------------------------------------------------------------|



D|------------------------------------------------------------------------------------|
A|------------------------------------------------------------------------------------|
F|---6-6-6-6-6--8-8-8-8-8--9-9-9-9-9--10-10-10------6-6-6-6-6--8 ~ -------------------|
E|---6-6-6-6-6--8-8-8-8-8--8-8-8-8-8--10-10-10------6-6-6-6-6--8 ~ -------------------|
G|---4-4-4-4-4--6-6-6-6-6--7-7-7-7-7--8--8--8-------4-4-4-4-4--6 ~ -------------------|
C|------------------------------------------------------------------------------------|


INTRO
D|---------------------|-----|
A|---------------------|-----|
F|--------4-4----------|-----|
E|---3--3------3-3-6---|-x10-|
G|---3--3------3-3-6---|-----|
C|---3--3------3-3-6---|-----|


nouveau message Répondre Recherche


plan Plan du Forum Tablatures||Tags : tab, titre, recherche, billy, maximum, japonais, groupe, musique, hormone