fortunes of war


nouveau message Répondre
Recherche

#
hello a tous!

j'ai un probleme de taill wobble
je suis fan du morceau fortunes of war de iron maiden mais je n'arrive pas a placer mes doigts hum

par exemple je doigt pincer la 7eme case de la 2eme corde et les 9eme cases des deux dernières cordes et ainsi de suite en decalant la main de plusieurs cases.

mais je n'arrive pas a mettre mon index et faire ujn mini barré avec mon majeur hammer !

quelqun a t'il une astuce pour travailler ce genre d'accord? ou la souplesse des doigts?

merci d'avance icon_cheesygrin



flobass

Mega Tabber
3 photos
#
C'est la souplesse des doigts dans ce cas, j'ai la tab en format GP, je l'ai joué il y a pas longtemps.wink

Des étirements avant de jouer, sinon tu peux trouver des topics pour travailler la souplesse des doigts.wink

La tab :

G||------9---9---9---------12----12----12----|
D||----9---9---9---9----12----12----12----12-|
A||--7---------------10----------------------|
D||------------------------------------------|

------7---7---7-------4---4---4---|------5---5---5-------7---7---7---|
----7---7---7---7---4---4---4---4-|----5---5---5---5---7---7---7---7-|
--5---------------2---------------|--3---------------5---------------|
----------------------------------|----------------------------------|

------9---9---9-------9---9---9---|------9---9---9---------12----12----12----|
----9---9---9---9---9---9---9---9-|----9---9---9---9----12----12----12----12-|
--7---------------7---------------|--7---------------10----------------------|
----------------------------------|------------------------------------------|

------7---7---7-------4---4---4---|------5---5---5-------7---7---7---|
----7---7---7---7---4---4---4---4-|----5---5---5---5---7---7---7---7-|
--5---------------2---------------|--3---------------5---------------|
----------------------------------|----------------------------------|

------9---9---9-------9---9---9---|------9---9---9---------12----12----12----|
----9---9---9---9---9---9---9---9-|----9---9---9---9----12----12----12----12-|
--7---------------7---------------|--7---------------10----------------------|
----------------------------------|------------------------------------------|

------7---7---7-------4---4---4---|------5---5---5-------7---7---7---|
----7---7---7---7---4---4---4---4-|----5---5---5---5---7---7---7---7-|
--5---------------2---------------|--3---------------5---------------|
----------------------------------|----------------------------------|

------9---9---9-------9---9---9---|------9---9---9---------12----12----12----|
----9---9---9---9---9---9---9---9-|----9---9---9---9----12----12----12----12-|
--7---------------7---------------|--7---------------10----------------------|
----------------------------------|------------------------------------------|

------7---7---7-------4---4---4---|------5---5---5-------7---7---7---|
----7---7---7---7---4---4---4---4-|----5---5---5---5---7---7---7---7-|
--5---------------2---------------|--3---------------5---------------|
----------------------------------|----------------------------------|

------9---9---9-------9---9---9---|------9---9---9---------12----12----12----|
----9---9---9---9---9---9---9---9-|----9---9---9---9----12----12----12----12-|
--7---------------7---------------|--7---------------10----------------------|
----------------------------------|------------------------------------------|

------7---7---7-------4---4---4---|------5---5---5-------7---7---7---|
----7---7---7---7---4---4---4---4-|----5---5---5---5---7---7---7---7-|
--5---------------2---------------|--3---------------5---------------|
----------------------------------|----------------------------------|

------9---9---9-------9---9---9---|------9---9---9---------12----12----12----|
----9---9---9---9---9---9---9---9-|----9---9---9---9----12----12----12----12-|
--7---------------7---------------|--7---------------10----------------------|
----------------------------------|------------------------------------------|

------7---7---7-------4---4---4---|------5---5---5-------7---7---7---|
----7---7---7---7---4---4---4---4-|----5---5---5---5---7---7---7---7-|
--5---------------2---------------|--3---------------5---------------|
----------------------------------|----------------------------------|

------9---9---9-------9---9---9---|------9---9---9---------12----12----12----|
----9---9---9---9---9---9---9---9-|----9---9---9---9----12----12----12----12-|
--7---------------7---------------|--7---------------10----------------------|
----------------------------------|------------------------------------------|

------7---7---7-------4---4---4---|------5---5---5-------7---7---7---|
----7---7---7---7---4---4---4---4-|----5---5---5---5---7---7---7---7-|
--5---------------2---------------|--3---------------5---------------|
----------------------------------|----------------------------------|


#
moi je ne connais pas la chanson mais j'ai regardé vite fait et pour le faire je place index sur la 7 éme case l'anulaire sur la neuf de la 3 éme corde et l'auriculaire sur la neuf de la derniére voila

flobass

Mega Tabber
3 photos
#
andreas bass a écrit :
moi je ne connais pas la chanson mais j'ai regardé vite fait et pour le faire je place index sur la 7 éme case l'anulaire sur la neuf de la 3 éme corde et l'auriculaire sur la neuf de la derniére voila


C'est une solution, ou alors : index : 7 et annulaire en 9 sur la 3ème et 4ème corde.
C'est à toi de voir comment du peux faire.wink

EDIT : si vous arrivez à jouer à trois doigts, ça vaut le coup.wink

miliouz

Yoda...Tabber
4 photos
2 messages
#
Pas de mini barre necessaire :
index sur la corde La (case 7)
annulaire sur corde RE (case 9)
auriculaire sur corde Sol (case 9)

Maitre Yoda et la caravane passe...
Le bassiste n'a que 4 cordes, mais il a un cerveau icon_cheesygrin
#
je vais essayer! j'ai plutot des gros doigts pas souples en fait!

pas assez souples pour bien faire avec index et annulaire et tros gros pour annulaire et auriculaire!

je vais essayer et je vous tiens au courant :)

au fait ce morceau est de quel niveau?

miliouz

Yoda...Tabber
4 photos
2 messages
#
Niveau facile
Si t'aime Iron maide, essaie phatom of the opera, la tu vas couiner!!! wink

Maitre Yoda et la caravane passe...
Le bassiste n'a que 4 cordes, mais il a un cerveau icon_cheesygrin

nouveau message Répondre Recherche


plan Plan du Forum Basse||Tags : arrive, doigts, cases, des, war, fortunes, pincer, corde, case