The Ecstasy Of Gold


nouveau message Répondre
Recherche

vitramus

2 photos
#
salut,

Je cherche la tablature de la chansson "The Ecstasy Of Gold" verssion métallica. j'en ai trouver deux ou trois mais, injoueable ou fausse.

http://www.youtube.com/watch?v=CKg-qh4t1WA~~mode=related~~search=

voila si quelqun a ça je suis preneur wink



elladan666

2 photos
#
j'ai tjr ca si tu veux ( accorde toi un demi ton en dessous )



------3---------------0-------0----------------
---5----5---3-5-3-------3--------3-----------0----
-2------------------2-------2---------2--2------2---
---------------------------------------------
---------------------------------------------
---------------------------------------------






---------7--3-----3------------------3--------------------
-----5----------5---5--3-----3---5---------3--5-----------
---2-----------------------5------------5-----------------
------------------------------------------------------
------------------------------------------------------
------------------------------------------------------




et après je sais pas icon_cheesygrin

vitramus

2 photos
#
c'est quel partie au juste ? icon_redface

elladan666

2 photos
#
le tout début de la partie de Kirk

fan-de-soad

1 photo
#
a l'oreille ca doit c'trouver icon_cheesygrin

vitramus

2 photos
#
oui, le début ca va, mais apres c'est une autre paire de manche smyleybleu icon_redface

#
prend la version orchestre faite lors du concert avec un orchestre symphonique que metallica a fait et refait la a ta sauce.


nouveau message Répondre Recherche


plan Plan du Forum Tablatures||Tags : ecstasy, gold, trouver, deux, trois, metallica, verssion, cherche, tablature