Tab '' les deux guitares '' (manouche)


nouveau message Répondre
Recherche

#
Salut!

je n'arrive pas a trouver la tab de cette chanson http://www.radioblogclub.fr/open/80683/les_yeux_noirs/Opa%20Tsupa%20-%20Les%20de...
( reprise d'aznavour ) j'ai essayé de tabber le debut du riff principal j'ai un peu du mal :


------11-13-11--------11-11-13-11----------10-12-10---
---12--------------11-------------------11------------
13--------------11-------------------10---------------
------------------------------------------------------
------------------------------------------------------
------------------------------------------------------

jsuis pas trop sur pour la fin..
Merci d'avance!


-JO- smiley-guitar




#
Salut Fatjo....Ce sont les grilles...Mais je suppose que tu veux le chorus ?


#
tu es sûr que c'est vraiment ça ? ça sonne bizarrement ...

#
oui c'est ca mais une case plus bas

#
attention, ne pas confondre "Les Yeux noirs" et "Les Deux guitares" !

Le thème qu'expose "fatjo86" est le thème des Deux Guitares (qui au passage est joué un demi ton au dessus, la version originale est en Gm et pas en G#m, cf: Tchan Tchou Vidal)

La grille proposée par "las" est la grille des Yeux noirs ! (célèbre standard tzigane, cf: D.Reinhardt)

La grille des Deux Guitares ferait plutôt :

Gm / Dm / A7 / Dm en gros pour le A (je l'ai pas de tête) et du coup le thème serait joué un demi ton en dessous :


Gm Dm A7 Dm
------10-12-10--------10-12-10---------------9-12---9-10-12-9-10--
---11--------------10-------------------8-11----------------------
12--------------10------------------------------------------------
------------------------------------------------------------------
------------------------------------------------------------------
------------------------------------------------------------------

on remarque au passage que ce sont les arpèges des accords tout simplement..
a part le A7 où c'est une gamme diminuée joué un ton en dessous (en G),
très typique de la musique Tzigane, on joue cette gamme sur les accords de degré V.

voilou, @+ !

(désolé pour le 'déterrement' du topic mais cette erreur m'a interpelé hihi)


nouveau message Répondre Recherche


plan Plan du Forum Tablatures||Tags : tab, --------------, -------------------, guitares, opa, open, reprise, aznavour, tabber