tablatures roi soleil et christophe mae


nouveau message Répondre
Recherche

#
est ce que des tablatures sans accords existent pour les chanson du roi soleil et de christophe mae?? car je ne les connais pas et je ne peux donc pas jouer ces morceux...

ex de tabs que je recherche:

e--0-0-0--2-3--3-3-4-3-2-2-2-0---0-
B------------------------------3---
G----------------------------------
D----------------------------------
A----------------------------------
E----------------------------------

(c'est 30 millions d'amis mais bon c'était jute pour donner un exemple...)

merci!!



benouche

2 photos
#
30 millions ce serait pas plutot :

e--0-0-0--2-3--3-3-5-3-2-2-2-0---0--
b-------------------------------3-----------
g-----------------------------------
d-----------------------------------
a-----------------------------------
e-----------------------------------

lol

par contre 'peut pas t'aider désolé

#
je sais pas lol mais en tout cas comme je l'ai mis sa rend super bien...bien que je sois pas une pro...

merci quand meme!!

#
Salut,
Le mieux c'est que tu utilises Guitar Pro, et là tu trouveras mieux ton bonheur, je sais qu'il existe une tab de mon essentiel au format Guitar Pro sur abc-tabs.com
Voilà bon courage
Eyes ! smiley-guitar


nouveau message Répondre Recherche


plan Plan du Forum Tablatures||Tags : mae, tablatures, les, christophe, roi, soleil, peux, donc, jouer