Recherche : Soloe sur Pierrot - Samarabalouf/Lantoine


nouveau message Répondre
Recherche

#
Bonsoir à tous,

Voilà je cherche désespérement la tablature de la deuxième guitare sur le morceaux "Pierrot" de Loic Lantoine (album : Badaboum). J'ai déjà la rythmique mais je cherche la guitare mélodique.

Les deux grattes sont joués par les gars de Samarabalouf.
Dites moi si vous voulez la tablature de la rythmique.

Pour ceux que ca peu aider, voici une vidéo :

http://vids.myspace.com/index.cfm?fuseaction=vids.individual&videoID=1822816222


D'avance mille merci !!!!



#
Bonjour,

si je devine bien, tu as récupéré la grille sur abc-tabs.
Il y en a une que je trouve meilleure sur partoches.fr
Ces deux ont l'intérêt de reprendre le voicing ascendant de la contrebasse sur les 4 premières mesures.
C'est une qualité si tu joues seul.
Néanmoins, au vu de la vidéo, je pense que la rythmique originale ressemble à ça (voir ci-dessous).

Ci-dessous également, une proposition pour le solo de l'intro (12 mesures découpées par groupes de 2 temps).
Quand j'aurai un peu de temps (septembre ?) je transcrirai le reste,
et je mettrai ça au propre, c'est impossible d'écrire les appogiatures en format texte.

à suivre.
B.

Grille

Am G C Dm E7
--------------------------------
----5-------3-------5-----6---5-
----5-------4-------5-----7---7-
----7-------5-----5-------7---6-
----7-----5---X-3-----3-5---7---
5-----0-3-----------------------

deux fois, puis

Dm Dm/E7 F7 E7 Dm F7 E7
----------------------------------------------------------------
----6-------6-------6-------5-------6-------6---5---------------
----7-------7-------8-------7-------7-------8---7---------------
----7-------7-------7-------6-------7-------7---6---------------
5-------7-------8-------7-------5-------8-------7---------------
----------------------------------------------------------------

Intro

-------- -------- -------- -------- -------- -------- ------8- 7---5---
5------- -------- -------- 6--/10--5------- -------- -------- --------
-------- -------- -------- -------- -------- -------- -------- --------
-------- -------- -------- -------- -------- -------- -------- --------
-------- -------- -------- -------- -------- -------- -------- --------
-------- -------- -------- -------- -------- -------- -------- --------

------5- -------- --8-8-8- 7---5--- -------- -------- ------7- --------
6------- 6------- -------- -------- -------- -------- --5H6--- 6P5-----
-------- -------- -------- -------- 7------- -------- -------- ----5P4-
-------- -------- -------- -------- -------- -------- -------- --------
-------- -------- -------- -------- -------- -------- -------- --------
-------- -------- -------- -------- -------- -------- -------- --------

-------- -------- -------- -------- - -- -- -- - -------- -------- --------
-------- -------- -------- ------10 12/13-12-10- --10---- -------- --------
4------- -------- -------- ----9--- - -- -- -- - 10----10 9------- --------
----7--- -------- ----6-7- 9-10---- - -- -- -- - -------- --1097- 7-------
-------- -------- 7P8----- -------- - -- -- -- - -------- -------- --------
-------- -------- -------- -------- - -- -- -- - -------- -------- --------

#
Nom d'une clé de sol!
Le formatage de la tab ne passe pas à l'écran :
faire une copie dans un éditeur de texte simple avec une police simple et le tour est joué.

B.

#
How ! Alors là c'est génial, je ne m'y attendais plus !!!

Si je peux me permettre, il y'a quelques effets sur les première notes :


----------------
--4h5----5h6p5-- etc etc
----------------
----------------
----------------
----------------


Sinon c'est très sympa ! Je t'ai envoyé un MP qu'on en discute !!!


nouveau message Répondre Recherche


plan Plan du Forum Tablatures||Tags : rythmique, tablature, vids, guitare, cherche, samarabalouf, les, pierrot, lantoine