Gammes de Flamenco


nouveau message Répondre
Recherche

#
Bonjour je cherche les gammes utilisées pour jouer du flamenco ! icon_redface Merci



monoboule

1 photo
#
peutetre espagnole icon_cheesygrin

sinon je sais pas, sa m'interesse aussi icon_redface

hum
#
Salut mon gars,
en flamenco la gamme de base est le phrygien (pas comme le chapeau!)
Tu fais la gamme de do Majeur sur l'accord de La mineur!
A toi de jouer smiley-guitar

#
Quand on demande les gammes flamenco, on donne souvent ce genre d'indic comme toi fpet ..

Une gamme de do majeur ca me parle, une de La mineur aussi, mais qu'est ce que ca veut dire faire la gamme de do majeur sur l'accord la mineur hum

#
J'ai la gamme de sol prygien, après pour le do je te laisse adapter


-------------------------------------------4-6----
-----------------------------------4--6--8--------
--------------------------3--5--7-----------------
-----------------3--5--6--------------------------
---------3--5--6----------------------------------
-3--4--6------------------------------------------

#
Salut Payo!

tu fais un accompagnement en la mineur et tu fais un solo en jouant les nootes de ta gamme de do majeur. Tu nuances les notes en accentuant celles qui sonnet le mieux à l'oreille!
Allez au boulot !
Rien ne résiste au temps et au travail!!

Fpet smiley-guitar

#
ola
Ecoute du flamenco et tu nous dira,
Connais tu au moins les grilles flamenco?

#
voila une gamme qui sonne ps mal :
-------------------------------1-4-5-7-8-10----
-------------------------1-3-5-----------------
-------------------1-2-4-----------------------
-------------0-2-3-----------------------------
-------0-2-3-----------------------------------
-0-1-4-----------------------------------------

et avec vous rajoutez les accords de mi-fa-sol avec un rythme flamenco et c'est déja pas mal ^^...

1 membre aime ça


nouveau message Répondre Recherche


plan Plan du Forum Solfège||Tags : gammes, flamenco, bonjour, cherche, les, merci, jouer, utilisees