Tab classique , Valse n°2 de Dimitri Chostakovitch


nouveau message Répondre
Recherche

#
Je cherche desesperement la tab Valse n°2 de Dimitri Chostakovitch c aussi c'elle de la pub C N P Pour ce qui ne conaissent pas !



#
Je présume que tu n' auras pas l' opportunité de lire ce message, et suis conscient du ridicule que cela suggère, et néanmoins je poste cette tab, ne serait-ce que pour que les éventuels amateurs de la Valse n° 2 de Chostakovitch trouvent autre chose que ce sujet ... sifflote

chipie.foxtrot

Modérateur
#
ah oui ? et où est-elle cette tab ?

voir c'est entendre,c'est toucher,c'est retirer le voile qui sépare l'essentiel de l'apparent
(Tahar ben jelloun)....
je joue toujours de la guitare à six schtroumpfs !
#
A jouer à 170 à la noire.

Vous êtes susceptibles de décliner cette tab dans plusieurs genres, mais je rappelle qu' il s' agit à l' origine d' une valse à 3 temps.


Mi---------------------------------------------------------
Si----5----------------------------------5------6--5-------
Sol-----5---4------------4-- 5-----5-----------------7----
Ré-------------7------7----------7-------------------------
La---------------------------------------------------------
Mi--------------------------------------------------------


Mi--------------------------------------------------------
Si---------------------------------------5---6---4--5-----
Sol--7----4-----------------4----4----7-------------------
Ré----------7----6--------6-----6-------------------------
La---------------------7---------------------------------
Mi-------------------------------------------------------

chipie.foxtrot

Modérateur
#
ah ! tu l'as mise finalement icon_cheesygrin
j'ai édité le titre du topic pour qu'on sache de quoi il s'agit wink

voir c'est entendre,c'est toucher,c'est retirer le voile qui sépare l'essentiel de l'apparent
(Tahar ben jelloun)....
je joue toujours de la guitare à six schtroumpfs !
#
Petite précision subsidiaire, bien que flagrante : je n' ai posté que la tablature de la 1ère guitare, celle qui interprète la si célèbre mélodie, et pas la seconde, car je tatônne encore ...

Mais ça viendra ^^

P-S : Je ne sais pas si c' est de ton ressort, mais il serait bien de concevoir une page d' artiste Chostakovitch (ça n' incitera probablement pas les éventuels auditeurs de classique à poster des tablatures, mais au moins de le réhabiliter ... C' est peut-être stupide, mais ça me tient à coeur bump )

motorhead01

6 photos
#
---------------------------
--5----------------5--6-5--
----5-4------4-5--5------7-
--------7--7-----7---------
---------------------------
---------------------------

---------------------------
------------------5-6-4-5--
--7-4-------4--4-7---------
-----7-6---6--6------------
---------7-----------------
---------------------------

------------------------------
------------------------------
------------------------------
------------------------------
-5-2--------2-----2-4--5-4--2-
----5-4--4-5---4-5------------

----------------------------
----------------------------
----------------------------
----------------------------
-2------------------2-3-----
--4-2-1--1-2-4-1-3-4----7-8-

----------------------------
-5-----------3--------------
--5-----------4-------------
---7/5--5/3-----5/3--3/2----
----------------------------
----------------------------

----------------------------
-------------7--------6-----
-----6--6-5-6-5--5-4-5-3----
-7-9------------------------
----------------------------
----------------------------

Je n'ai pas l'oreille absolu, c'est ma première partition désolé pour ceux qui trouveront que cette version ne vaut rien. ( le format s'affichant mal avec partoch ouvrez le dans le brouillon ).

guitara ora

1 photo
#
je l'ai mes pas entière j'ai pas la fin si sa peu t'arranger

guitara ora

1 photo
#
j'ai la meme ses sa mes je recherche la suite

#
Bonjour,
Voici un lien pour la télécharger avec le nom des accords Valse n°2 ( Chostakovitch ):

http://www.wikifonia.org/node/15668#/C/0/1

Cordialement


nouveau message Répondre Recherche


plan Plan du Forum Tablatures||Tags : tab, chostakovitch, dimitri, valse, classique, cherche, desesperement, conaissent, pub