Recherche partition Niagara : j'ai vu


nouveau message Répondre
Recherche

#
Salut à tous,

Je cherche les accords des couplets de : j'ai vu de niagara.
Car pour le riff c'est ca :

E------------------------------------------------------------------
B------------------------------------------------------------------
G------------------------------------------------------------------
D----------------------------------------------------0---------------
A-------------5---7---------5---------------5---7----2-1-0--------
E-0--5h6h7---7----5h6h7--7-0--5h6h7---7---------------3b-0-

Pour le refrain c'est : Em A

Donc merci de m'aider a trouver juste les accords sur les couplets.

vive le rock smiley-guitar



#
J'ai peut etre trouvé.lol.
Merci de me faire vos commentaires pour peut etre affiner cette partition.

Em : 022000 A : x02220 E5 : 022xxx
B5 : x244xx

Intro :

E||-------------------------------|------------------------------|
B||-------------------------------|------------------------------|
G||-------------------------------|------------------------------|
D||-------------------------------|-------------------0----------| x4
A||------------5---7---------5---|-----------5---7---2-1-0----|
E||-0-5h6h7---7---5h6h7---7-|-0-5h6h7---7-----------3b-|


E5
J'ai vu Berlin Bucarest et Pekin comme si j'y etais
Matin et soir le nez dans la tele c'est encore plus vrai
J'etais de tous les combats collée devant l'ecran
A la fois a Soweto en Chine et au Liban
B5
Lancer des pierres au bord de Gaza je ne regrette pas
Des religieux au nom de leur foi m'ont lancé une fatwa

Em A
J'ai vu la guerre, la victoire était au bout de leur fusils
Em A
J'ai vu le sang sur ma peau, j'ai vu la fureur et les cris
Em A
Et j'ai prié, j'ai prié tous ceux qui se sont sacrifiés
Em A
J'ai vu la mort se marrer et ramasser ceux qui restaient
Em
Et j'ai vu

Intro x4

Que cent mille fleurs s'ouvrent à jamais et j'ai deja donné
Les drapeaux rouges ont cesse de flotter je les ai brulés
Un homme ce matin s'est jete sous un train
Abandonné comme un chien la misere et la faim
Le pire est à craindre pour demain ca ne me fait rien
Accrochée à ma fenetre bleutée j'ai cherché la vérité

J'ai vu la guerre, la victoire était au bout de leur fusils
J'ai vu le sang sur ma peau, j'ai vu la fureur et les cris
Et j'ai prié, j'ai prié tous ceux qui se sont sacrifiés
J'ai vu la mort se marrer et ramasser ceux qui restaient
Et j'ai vu

Intro x6

J'ai vu la guerre, la victoire était au bout de leur fusils
J'ai vu le sang sur ma peau, j'ai vu la fureur et les cris
Et j'ai prié, j'ai prié tous ceux qui se sont sacrifiés
J'ai vu la mort se marrer et ramasser ceux qui restaient

Et j'ai vu la guerre, la victoire était au bout de leur fusils
J'ai vu le sang sur ma peau, j'ai vu la fureur et les cris
Et j'ai prié, j'ai prié tous ceux qui se sont sacrifiés
J'ai vu la mort se marrer et ramasser ceux qui restaient
Et j'ai vu

Post édité le 06/11/2004 18:24:37 par satriani17


Post édité le 06/11/2004 18:25:26 par satriani17


#
Riff I
e--------------------------------------------------------
B--------------------------------------------------------
G--------------------------------------------------------
D-------------------------------------------0------------
A----------5---7~-------5------------5---7----2-1-0------
E-0~-5h6h7---7----5h6h7--7-0~--5h6h7---7------------3~-0-
Riff II
E5*

e----------(0)-(0)------------------
B----------(0)-(0)------------------
G-----------9---9-------------------
D-----------9---9-------------------
A-----------7---7-------------------
E--0--0----(0)-(0)-0~----7-10-7-0---
Riff III
B5
e-----------------------------------
B-----------------------------------
G-----------------------------------
D---9---9---------------------------
A---9---9h11------------------------
E---7---7---------------------------
structure
************************
- Riff I X 4
- E5 (Riff II)
- B5 (Riff III) X4
- Montée : E5(022xxx)->E5* E5* e e e a A GA G AA G A G e
retour à Riff 1
************************

J'AI VU BERLIN BUCAREST ET PEKIN COMME SI J'Y ETAIS
MATIN ET SOIR LE NEZ DANS LA TELE C EST ENCORE PLUS VRAI
J'ETAIS DE TOUS LES COMBATS COLLEE DEVANT L'ECRAN
A LA FOIS A SOWETO EN CHINE ET AU LIBAN
LANCER DES PIERRES AU BORD DE GAZA JE NE REGRETTE PAS
DES RELIGIEUX AU NOM DE LEUR FOI M ONT LANCE UNE FATWA
J AI VU LA GUERRE LA VICTOIRE ETAIT AU BOUT DE LEURS FUSILS
J AI VU LE SANG SUR MA PEAU J AI VU LA FUREUR ET LES CRIS
ET J AI PRIE J AI PRIE TOUS CEUX QUI SE SONT SACRIFIES
J AI VU LA MORT SE MARRER ET RAMASSER CEUX QUI RESTAIENT
ET J AI VU
QUE CENT MILLE FLEURS S OUVRENT A JAMAIS ET J AI DEJA DONNE
LES DRAPEAUX ROUGES ONT CESSE DE FLOTTER JE LES AI BRULES
UN HOMME CE MATIN S EST JETE SOUS UN TRAIN
ABANDONNE COMME UN CHIEN LA MISERE ET LA FAIM
LE PIRE EST A CRAINDRE POUR DEMAIN
CA NE ME FAIT RIEN
ACCROCHEE A MA FENETRE BLEUTEE
J AI CHERCHE LA VERITE
J AI VU LA GUERRE LA VICTOIRE ETAIT AU BOUT DE LEURS FUSILS
J AI VU LE SANG SUR MA PEAU J AI VU LA FUREUR ET LES CRIS
ET J AI PRIE J AI PRIE TOUS CEUX QUI SE SONT SACRIFIES
J AI VU LA MORT SE MARRER ET RAMASSER CEUX QUI RESTAIENT
ET J AI VU


voila ce que j'ai pu trouvé pour completer celle de satriani 17 j'espere que ca t'aidera
a bientot et bonne gratte


nouveau message Répondre Recherche


plan Plan du Forum Tablatures||Tags : ---, les, ---------------, accords, ----, couplets, niagara, des, e------------------------------------------------------------------b------------------------------------------------------------------g------------------------------------------------------------------d----------------------------------------------------