tainted love


nouveau message Répondre
Recherche

#
exuser moi mais quelqu'un connait la tablature basse de tainted love (de Soft cell)
merci d'azvance




hand87_5

Yoda...Tabber
#
Tainted Love Bass Tab by Living End, www.Ultimate-Guitar.Com

Tainted Love
The Living End - Tainted Love
THis is a good song, but not well know
Tabbed by Jed The Miserable (bloody_dismal@hotmaill.com)
This is just the two riffs in the song, listen to the song and you will
know where to put them!

G------------------------------------|----------------------------------|
D------------------------------------|----------------------------------|
A---------------------6--6-----------|----------------------------------|
E---3--3-----6--6--------------6--8--|----------------------------------|

G------------------------------------------------------8-----------8----|
D---5-----------5--------------8-----------8--------------8-----8-------|
A------5-----5-----5--------------8-----8-----8--------------6----------|
E---------3-----------3--5-----------6-----------6--8-------------------|

G------------------------3-----5--6--7--8--9----------------------------|
D---8-----------3-----5-----------------------0--0--0--0--0--0--0--0----|
A------6--8-------------------------------------------------------------|
E-----------------------------------------------------------------------|



Post édité le 27/10/2004 09:25:53 par hand87_5


Post édité le 27/10/2004 09:26:17 par hand87_5


Post édité le 27/10/2004 09:26:33 par hand87_5



nouveau message Répondre Recherche


plan Plan du Forum Tablatures||Tags : tainted, love, quelqu, moi, exuser, connait, tablature, azvance, merci