Recherche Tablature Hocus Pocus : J'attend


nouveau message Répondre
Recherche

#
Bonsoir tout le monde,
Je suis à la recherche des accords de la chanson J'attend de Hocus Pocus car ils sont introuvable sur divers et puisque je sais que les gens sont sympa ici je me suis décidé à poster icon_redface
D'avance Merci



thevince58

Jeune tabber
1 photo
#
Salut moi aussi je voudrai ces accors paske je trouve cette chanson très simpathique !! Mais malheureusement très dure a avoir !!

#
Persone ne sait ??
Ecoutez le lien RadioBlog et dites moi si vous trouvez quelques accord ? wink
Merci note-4

#
aaaah jsuis content d'avoir pas fait cette tab pour rien!!!

------6-------7---------4------4-4--
------7-------7---------4------6-6--
------8-------7---------4------4-4--
------8-------9---------6------6-6--
-4s6--6-------9---------6------4-4--
---------6-7--7---6--4--4---4-------


perso jle joue un peu à la 'funk' , j'ajoute pas mal de death notes, en faisant un effet 'tapé' ... genre jack johnson icon_cheesygrin

allez @+!

#
Merci !!!!! T'es un dieu !!!!!!!!
Encore merci

#
salut a tous, jai pousser un plus le déchiffrage jusqu'au refrain :

#
darksnake a écrit :
salut a tous, jai pousser un plus le déchiffrage jusqu'au refrain :

Hocus Pocus
J'attend


Intro :

------6-------7---------4------4-4--
------7-------7---------4------6-6--
------8-------7---------4------4-4--
------8-------9---------6------6-6--
-4s6--6-------9---------6------4-4--
---------6-7--7---6--4--4---4-------





-2-h---6-2-h-6-2--4-2--6--9-------------6-S-10--7---
-2-----2-----4--4---------------------7-S-9---7---
-3-----3-----2--4---------------------6-S-8---8---
-4-----4-----4--6---------------------8-S-10--7---
-4-----4-----2--6---------------------6-S-8---9---
-2-----2-----2--4---------------------6-S-8---7---



Intro et


----------4--------------------------
-------4--4--------------------------
-----4----6--------------------------
---5------4--------------------------
-6--------6--------------------------
----------4-------------------------



#
je me permet de corriger, je pense avoir les bons accords (ceux cités étaient plus ou moins corrects, mais ceux que je joue sonnent vmt pareil)

e------------------------------------------
B-------7-----------7----------4-----4--4--
G-------6-----------8----------4-----4--4-- en boucle
D-------8-----------7----------4-----4--4--
A-4/6--6----------------------------------
E--------------6-7--7-----6-4------4----4--

avant le refrain ça change


e------------------------------------------
B-------7-----------7------------6--4------
G-------6-----------8-----------6---4------
D-------8-----------7----------6----4------
A-4/6--6----------------------------------
E--------------6-7--7------6-6------4------

voila

ahh et le petit phrasé du refrain




e---------------------------------6-----------------------------------
B-----7-7---9-7------7-7-------7------7-7----9-7----/9-9--------------
G--/8-----8--------/8--------8--------/8------8---------------8~~~~---------


/= slide
~ = Vibrato

Et voila, n'hésitez pas à me corriger
Ps: j'en ai chier avec la rythmique, mais les accords sont là, pour la rythmique, ecoutez simplement le morceaux

pour ceux que ça intéresse j'ai aussi la reprise de Gainsbourg qu'ils ont faite a Taratata, avec des bons accords bien jazzy .

#
Bonjour

Je suis débutant, je sais déjà jouer quelque truc. Et je voudrai me mettre a aprendre cette mélodie, mais malheureusement quand je fait les accords dit sur la tablature le son est pas du tout le même.

#
ben_ham
ben_ham a écrit :
je me permet de corriger, je pense avoir les bons accords (ceux cités étaient plus ou moins corrects, mais ceux que je joue sonnent vmt pareil)

e------------------------------------------
B-------7-----------7----------4-----4--4--
G-------6-----------8----------4-----4--4-- en boucle
D-------8-----------7----------4-----4--4--
A-4/6--6----------------------------------
E--------------6-7--7-----6-4------4----4--

avant le refrain ça change


e------------------------------------------
B-------7-----------7------------6--4------
G-------6-----------8-----------6---4------
D-------8-----------7----------6----4------
A-4/6--6----------------------------------
E--------------6-7--7------6-6------4------

voila

ahh et le petit phrasé du refrain



e---------------------------------6-----------------------------------
B-----7-7---9-7------7-7-------7------7-7----9-7----/9-9--------------
G--/8-----8--------/8--------8--------/8------8---------------8~~~~---------


/= slide
~ = Vibrato

Et voila, n'hésitez pas à me corriger
Ps: j'en ai chier avec la rythmique, mais les accords sont là, pour la rythmique, écoutez simplement le morceaux

pour ceux que ça intéresse j'ai aussi la reprise de Gainsbourg qu'ils ont faite a Taratata, avec des bons accords bien jazzy .



Hé, salut! En jouant attentivement ta tab Ben_ham, je n'ai pas pu m'empêcher de changer quelques trucs pour que la chanson sonne mieux.

[
e-------------------------------------------------------
B-----------7---------------7-------------6---6-----6-----
G-----------6---------------8-------------6---6-----6----- (en boucle)
D-----------8---------------7-------------6---6-----6-----
A----4/6----6---------------9------6p4--------------------
E-4--------------6-6---6h7----------------6---6-----6-----

...

Et, avant le refrain,


e-----------------------------------------------------------
B--------------7---------------7-------------6---6-----2-----
G--------------6---------------8-------------6---6-----2-----
D--------------8---------------7-------------6---6-----2-----
A------4/6-----6---------------9------6p4--------------------
E-4-------------------6h7--------------------6---6-----2----



+ le petit phrasé du refrain


e---------------------------------6-----------------------------------
B-----7-7---9-7------7-7-------7------7-7----9-7----/9-9--------------
G--/8-----8--------/8--------8--------/8------8---------------8~~~~---------

et voilà! ça devrait être bon^^. S'il y a encore des corrections à faire, n'hésitez pas...
A la fin de chaque (ou de presque chaque) accords, vous pouvez faire un effet à la Jack Johnson^^. A vous de voir, faut avoir un minimum de feeling pour jouer cette chanson. ]

Mais bravo, c'est quand même du bon boulot que t'as fait là Ben_ham, et pour la tab de la reprise de Gainsbourg qu'ils ont faîte, je la veux bien, carrément même.^^

#
Ouai, j'écoute, mais c'est pas un peu difficile, non? Sachant que sa ne fais que 6 mois que j'en fais seulement ...
Enfin je le garde en réserve, on verra plus tard, en tout cas très sympathique la mélodie ... smiley-guitar


nouveau message Répondre Recherche


plan Plan du Forum Tablatures||Tags : pocus, recherche, attend, hocus, chanson, accords, des, tout, monde