aider moi pour monter là haut de saez


nouveau message Répondre
Recherche

#

Montée là-haut


Intro et mélodie jouée tout le long du morceau

---------1-----0---------0-------------------------------------0-
-----3-------3-------1-------1-3-----3---1---1-0-----0---1---3---
---2---2---2-------0---0---0-------0---0---0-------0---0---0-----
-0---------------------------------------------------------------
-----------------3-------------------------------2---------------
---------------------------------3-------------------------------


---------0---1-0-------------0---------------0---------------0-1-
-----3---------------3---3-----1-----1---1-----1-----1---3-------
---0---0---0-------0---0---0-------2---2---2-------2---2---2-----
-----------------------------------------------------------------
-3----------------2--------------0---------------0---------------
-----------------------------------------------------------------


Dm-C-G-C-Em-Am-
kelkun peut m'expliker commen on joue cette musik parce ke je comprend rien ! aider mioi please et a koi servent les accorts kon a a la fin ?
svp help



#
Qu'est ce qui te gênes dans cette tablature???

Les accords marqués sont Ré mineur Do Fa Do Mi mineur et La mineur ( désoler pour l'erreur ^^ j'ai du mal en ce moment )


nouveau message Répondre Recherche


plan Plan du Forum Débutants||Tags : ---, -------, -----, ---------------, aider, haut, saez, -------------------------------, intro