Josie and the pussycats


nouveau message Répondre
Recherche

#
si a quelqu'un a les tablatures ou les accords de ce groupe merci de les passer
en particulier je cherche "you d'ont see
merci a tous bump



#
tu pourras trouver des tab de josie sur www.mysongbook.com en format guitar pro

#
merci bien mais j'ai pas guitare pro
ou est ce que je peux le trouver ???
et si qqn sait ou trouver la tab "you don't see me" de Josie & the pussycats merci de me dire ou
j'ai essaye celle du site mais j'y comprends rien ca ressemble pas a la VO alors j'ai essaye de la faire mais je suis pas sur
si qqn pouvait m'aider a ameliorer la tab
merci d'avance
bump



|---------------3---------------------3-----------------------0-----------|
|-------------------3-----3---------------3-----------------------1-----1-|
|--------0---0---------0--------0------------0---------2---2---------2----|
|-----0----------------------------2------------2----2--------------------|
|---2------------------------3---------------------0----------------------|
|-3-----------------------------------------------------------------------|

|----------3------------|
|-------3-------3-----2-|
|----2-------------2----|
|-0---------------------|
|-----------------------|
|-----------------------|



pour info quand il y a:
- 1 seul espace, on joue comme un accord mais en arpeges
-- 2 espaces ce sont des croches
--- 3 espaces ce sont des noires
---- 4 espaces ce sont 1 noire et une double croche liees

les accords sont (pour ma version, je sais aps en vrai)

G : 320033
G9 : 032033
Am : x02210
Dsus: xx0233
D : 000232

Merci a tous bump


nouveau message Répondre Recherche


plan Plan du Forum Tablatures||Tags : les, merci, accords, tablatures, quelqu, pussycats, groupe, josie, see