Problème de lecture de tablatures !


nouveau message Répondre
Recherche

#
Bonjour,

Je commence la guitare et j'ai des problèmes, par exemple sur cette tab :

|----------------------------------------|----------------------------------|
|-----3--------3----------3-----3------3-|-----3-------3----------3---------|
|---2---2—-2h3---3-2--2-0---0-----0------|---2---2—2h3---3-2--2-0---0-----0-|
|-0--------------------------------------|-0--------------------------------|
|---------------------3-------3------3---|--------------------3-------3-3---|
|----------------------------------------|----------------------------------|


je ne sais pas ce que signifie 2h3 et aussi lorsque deux chiffres sont alignés verticalement , comment dois-je les jouer ?

merci d'avance

klopklop



#
je suis novice aussi mais j'ai copé ca comme infos...voici un exemple

E --------------------------------------------------
B --------------------------------------------------
G --------------------------------------------------
D --------------------------------------------------
A-------------5h7------------5h7--------------------
E ---0----0----------0----0-------------------------

Ce qui signifie jouez le Mi à vide deux fois, puis jouez le La à la 5è frette, et martelez la 7è frette.

#
8-8 Pour moi, il s'agit du h de Hammer. Le hammer se joue de la manière suivante : La 1ère note est jouée normalement , la 2ème sera frappée avec un autre doigt. Cet autre doigt tape la corde droit comme un petit marteau. Dans ton exemple, tu poses un doigt dans la deuxième case de la corde SO et tu la joue avec ta main droite puis immédiatement après sans utilisé la main droite, du vient taper la corde de la troisième case de la corde SOL. wink

#
c exactement ca !

h signifi hammer

quad 2 chiffre son aligné verticalement c veu dire que tu jou 2 note en meme temps
par exemple

---2---
---1--- ici ca veu dire que tu pose un doigt sur la 1er case de la 2em corde un autre doigt sur la 2em case de la
------- 1er corde puis tu gratte en meme temps les 2corde ! et voilou !
------
-------

#
Alu,
Ce h signifie en fait "hammer",
Cela signifie que tu doi jouer la première note normalement ( c'est-à-dire sur la 2° case) et que le second est obtenu en posant un autre doi de la main gauche dans la seconde case (ici il sagit de la 3° case)
Donc tu jou ta note en case 2 puis (sans gratter ta corde) tu pose un autre doi sur la case 3!!
Jespère ke tora compri et puis bonne chance!!

#
(oui tu as reson ses sa) ses comme santana europa, ses sa mais la ses le debut: smiley-guitar



----8-10-10*11-10--8----|---------------|------8-8*10-8---------|----------
-8--------------------11|-0*9hv---------|-9-11-----------11-----|----------
------------------------|---------------|--------------------10*|-12-------
------------------------|---------------|-----------------------|----------
------------------------|---------------|-----------------------|----------
------------------------|---------------|-----------------------|----------


nouveau message Répondre Recherche


plan Plan du Forum Tablatures||Tags : ---, -------, -----, ------, ----------, guitare, par, commence, bonjour