recherche tablatures très simple et sans accords pour débutant


nouveau message Répondre
Page 1 de 3
Recherche

#
Salut, je recherche des tablatures très simple sur la chanson francaise pour m'exercer. Je fais de la guitare que depuis 1 mois.
Merci d'avance.
A+



#
chanteur salut

#
je suis débutante aussi,hier soir j'ai trouvé des tab pour tout niveau sur ce site ex : voulzy.....je suis pas habitué non plus au tab, mais au solfège avec mes cours en école. Alors bon courage... wobble

#
bonjour eireg je viens de deposer une tab pas tres compliquee j espere qu elle fera l affaire

#
salut achéte les carnets de chants DIAPASON dans les mag de musiques.
EN PLUS LES ACCORDS SONT DESSINE SALUTS

#
salut je pense que si tu as des annees de guitare derriere toi il faut penser a ceux qui debute et n pas etre egoiste a+

#
Salut leberger, je n'ai rien dit de mal, je ne comprend pas ton dernier méssage, je débute et je cherche simplement des tablatures très facile et sans accord pour me faire plaisir en apprenant. Pour le moment je prends des cours ( seulement 4 heures à cause des vacances) et je ne sais lire que les tablatures avec les lignes et le position des doigts sur les cases ainsi que la corde à jouer.

a +

salut

#
Sur l'éducation sentimentale de Maxime LeForestier

E||--0----1----0--------|----------------------|----------------------|
B||-----------------3----|--1----0-------------|-------0----1--------|
G||----------------------|------------2----1---|--2--------------2---|
D||----------------------|----------------------|----------------------|
A||----------------------|----------------------|----------------------|
E||----------------------|----------------------|----------------------|



-------0----1----0---|--------------------|--1----0-------------|
--3-------------------|--3-----------------|------------3--------|
----------------------|-----------0---------|---------------------|
----------------------|---------------------|---------------------|
----------------------|---------------------|---------------------|
----------------------|---------------------|---------------------|



--3----5----3----1---|--0--------------------|------------0---------|
-----------------------|-------3----1----0----|--1----3---------1---|
-----------------------|-----------------------|-----------------------|
-----------------------|-----------------------|-----------------------|
-----------------------|-----------------------|-----------------------|
-----------------------|-----------------------|-----------------------|



--1----0------------|--------------------||
------------3--------|-----1----1--------||
---------------------|--------------------||
---------------------|--------------------||
---------------------|--------------------||
---------------------|--------------------||

Bon courage

Belounga O.

#
merci , c'est super

#
bonjour nono 57 ce n set pas a toi que j ai repondu comme cela c est a tropico il se moquait moi je prptege les gars qui debute car je suis passe par la et si tu progresse il f

#
bonjour nono 57 je n ai rien conte toi au contraire c etait a tropicco que je parlais a+ leberger

#
élo tout le monde, je débute aussi et je voudrais savoir si il serai possible de trouver des partitions de Saez pas trop dure et sans accord, je débute vraiment on peut pas etre plus bas lol donc je voudrai déja commencer par des trucs pas trop dur de saez si possible parce que celle du site sont pas évidente (niveau 5 pour la plupart je sais pas si c'est représentatif) et quazyment toute avec accord (sauf 2 ou 3) Merci d'avance
(désolé si j'poste pas la ou il faut :^s)

#
j ai peut etre ca mais je ne peut que l envoyer par email! à+

#
salut a tous,le bouquin avec lequel je bosse en cours de débutante est supercar a chaque chansos les accords sont"dessinés" en haut de la page,ça aide bien avec les tab"je m'accompagne facilement a la guitare".merci leberger pour tout soutien et aide aux débutants.

#
merci belounga pour ta tab elle me rappelle mes camps de jeunes chanteur



nouveau message Répondre
Page 1 de 3
Recherche


plan Plan du Forum Tablatures||Tags : recherche, simple, tres, tablatures, des, accords, debutant, sans, chanson