TAB du pti morceau du groupe Four Tet


nouveau message Répondre
Recherche

#
Je cherche la tablature du petit morceau de guitare que l'on entend dans le morceau "everything is alright" du groupe "Four Tet". Je doute que ce soit un morceau très connu, mais si quelqu'un d'assez fortish en guitare pourrai me composé la tablature pour le débutant que je suis ce serai sympa.
Merci bcp d'avance wink))



rankxerox

Hyper Tabber
Petit Downloader
1 message
#
chanteur Capo III chanteur
Dm F C
tu recopies la tab qui suit dans notepad par exemple vu que la tabulation dans le post n'existe (?) pas


| | | | | | | |
|1-------------------0-----------|0h--1---------------0-----------|
|------------3-------------------|------------3-------------------|
|--------2---------------2-------|--------2---------------2-------|
|0---------------0---------------|0---------------0---------------|
|--------------------------------|--------------------------------|
|--------------------------------|--------------------------------|

| | | | | | | |
|1-------------------1-----------|--------------------0-----------|
|--------------------------------|1-------------------------------|
|------------2-------------------|------------0-------------------|
|--------3---------------3-------|--------2---------------2-------|
|--------------------------------|3---------------3---------------|
|1---------------1---------------|--------------------------------|

si tu débutes, en écoutant le morceau, cales les basses avec ton pouce
essaies de rajouter la mélodie après smiley-guitar
Bon courage


nouveau message Répondre Recherche


plan Plan du Forum Tablatures||Tags : morceau, guitare, tet, tablature, four, groupe, entend, everything, alright