Accueil > > Forums > Forum Tablatures > ch tabs fastoches... BEN HARPER, NEIL YOUNG, DYLAN, ELLIOTT MURPHY, JOSPEH ARTHUR

ch tabs fastoches... BEN HARPER, NEIL YOUNG, DYLAN, ELLIOTT MURPHY, JOSPEH ARTHUR


nouveau message Répondre
Recherche

#
hello je debute quelles tabs fastoches me conseillez vous ? (je suis tres ouvert pourvu que ce soit pas jeux interdits et pas durs ( c a dire sans barré dans un premier temps)

bcp d'insiprations... BEN HARPER, NEIL YOUNG, DYLAN, ELLIOTT MURPHY, JOSEPH ARTHUR, RADIOHEAD, SMASHING PUMPKINS, MARLEY, PINK FLOYD, les STONES etc etc...

français : AUBERT, TELEPHONE, TRYO, LOUISE ATTAQUE, TARMAC, NOIR DESIR, CABREL, HIGELIN, POLANREFF, BRASSENS, SAEZ etc etc...



#
Voici pour débuter, la partie guitare de "the girl from the north" de Dylan.


Pour chopper le morceau commence par la ligne de basses alternées avec le pouce.
Bien prendre le rythme:le pouce, quand son mouvement devient automatique,
sert de métronome dans la plupart des morceaux en picking )

G G Em
E||----------------------|----------------------|----------------------|
B||----------------------|----------------------|----------------------|
G||----------------------|----------------------|----------------------|
D||-------0---------0----|-------0---------0----|-------2---------2----|
A||--2-------------------|--2-------------------|--2-------------------|
E||------------3---------|------------3---------|------------0---------|


Em D7 D7
----------------------|----------------------|----------------------|
----------------------|----------------------|----------------------|
----------------------|----------------------|----------------------|
-------2---------2----|-------0---------0----|-------0---------0----|
--2-------------------|--0-------------------|--0-------------------|
------------0---------|------------2---------|------------2---------|


G C
----------------------|----------------------|
----------------------|----------------------|
----------------------|----------------------|
-------0---------0----|-------2---------2----|
--2-------------------|--3-------------------|
------------3---------|------------3---------|



Maintenant, voici une première approche en rajoutant l'index et le majeur de la
main droite (veille à garder le rythme des basses avec le pouce). La main droite
fait toujours la même chose à chaque mesure.

G
|---------------------------|
|------0-----------0--------|
|*-----------0-----------0--|
|*--------0-----------0-----|
|---2-----------------------|
|---------------3-----------|

G Em
--------------------------|--------------------------|
-----0-----------0--------|-----0-----------0--------|
-----------0-----------0--|-----------0-----------0--|
--------0-----------0-----|--------2-----------2-----|
--2-----------------------|--2-----------------------|
--------------3-----------|--------------0-----------|


Em D7
--------------------------|--------------------------|
-----0-----------0--------|-----1-----------1--------|
-----------0-----------0--|-----------2-----------2--|
--------2-----------2-----|--------0-----------0-----|
--2-----------------------|--0-----------------------|
--------------0-----------|--------------2-----------|


D7 G
--------------------------|--------------------------|
-----1-----------1--------|-----0-----------0--------|
-----------2-----------2--|-----------0-----------0--|
--------0-----------0-----|--------0-----------0-----|
--0-----------------------|--2-----------------------|
--------------2-----------|--------------3-----------|


C
---------------------------|
-----1-----------1---------|
-----------0-----------0--*|
--------2-----------2-----*|
--3------------------------|
--------------3------------|



Voici maintenant le picking tel que Dylan le pratiquait en concert

G
|--------------------------|
|---0-------------0--------|
|*-------0--------------0--|
|*----------0--------0-----|
|---2----------------------|
|--------------3-----------|


G Em Em
-------------------------|-------------------------|-------------------------|
--0-------------0--------|--0-------------0--------|--0-------------0--------|
-------0--------------0--|-------0--------------0--|-------0--------------0--|
----------0--------0-----|----------2--------2-----|----------2--------2-----|
--2----------------------|--2----------------------|--2----------------------|
-------------3-----------|-------------0-----------|-------------0-----------|


D7 D7 G
-------------------------|-------------------------|-------------------------|
--1-------------1--------|--1-------------1--------|--0-------------0--------|
-------2--------------2--|-------2--------------2--|-------0--------------0--|
----------0--------0-----|----------0--------0-----|----------0--------0-----|
--0----------------------|--0----------------------|--2----------------------|
-------------2-----------|-------------2-----------|-------------3-----------|


C G
--------------------------||--3----------------||
--1-------------1---------||--0----------------||
-------0--------------0--*||--0----------------||
----------2--------0-----*||--0----------------||
--3-----------------------||--2----------------||
-------------3------------||--3----------------||


En fait il n'y a aucune difficulté majeure : le D7 se fait en 20021x

D7
======
||||1|
------
2||3||
------
||||||

Si tu rencontres des problèmes et que je peux t'aider .... n'hésite pas!

Demain, je te mettrai les fichiers midi correspondants pour que tu écoutes ce que ça
devrait donner

A+

Belounga O.

#
Zut! tout s'est décalé....
Copie le message et colle-le dans notepad et tout devrait rentrer dans l'ordre.

S'cuses

Belounga O

#
Voilà, j'ai mis le fichier à l'adresse suivante:
http://www.ifrance.com/Chez-Felix/GirlFromTheNorth.mid

Si vous avez des remarques, critiques etc... n'hésitez pas smile

Cher Webmaster, je suis admiratif devant ton talent et le travail que tu accomplis, mais ne serait-il pas possible d'avoir un upload des fichiers midi qui liés aux tablatures, permettraient de les illustrer de façon sonore? smiley-guitar

Merci et A+
Belounga O.

#
merci !!!

effectivement avec le son c'est mieux je confirme ! car je n'y connait rien en solfège !

par contre je vais tacher de trouver ce morceau car je ne l'ai pas, et je prefere ecouter ce que ca donne réellement avant. mais promis je m'y attele !

par contre de Dylan je conseille aussi knoking on even door : 4 accords simples :

SOL RE LAm
SOL RE LAm
SOL RE do

#
Bon, bein Ben harper, le plus facile des plus faciles, c'est Waiting for an angel, ça se trouve partout, et ici, c'est sur... Après, pour la marche suivante, ya plus chouette...

#
yes ! et il ya aussi ALONE qui est excellente... incontournable !

NB: pssst RANK XEROCK... quand je m'identifie, quand je clik sur "entrer en backstage" j'ai une page de tchat qui me plante le pc pendant 2 mn... çà vient de chez moi ou quoi ?

merci d'avance ! @+

#
bein, la page de Chat, c'est normal, j'pense, ça me le fait à moi aussi, tu la réduis et comme ça, si t'as envie de causer, tu causes, si t'as pas envie tu cause pas... Non?
Si non, Alone, y'en a des tablatures, des vraies, avec les chiffres et tout et tout?

#
Il est possible que tu passes par un proxy qui n'autorise pas
le chat (C'est mon cas !)
Dans ce cas:
Dans Backstage, tu cliques sur
Modier mes options
,puis tu verifies que le chat n'est pas coché

#
Ha oui, j'ai compris de travers, évidemment, si ça plante... toutes mes scuses...

#
bonjour j ai besoin de votre aide svp!
je suis fan de ben harper et j aimerais me faire tatouer les notes de musique de sa chanson "with my own two hands" diamond in the inside.sa serait sympas de m aider. merci d avance.
contact: bboytristan43@hotmail.fr

#
bonjour j ai besoin de votre aide svp!
je suis fan de ben harper et j aimerais me faire tatouer les notes de musique de sa chanson "with my own two hands" diamond in the inside.sa serait sympas de m aider. merci d avance.
contact: bboytristan43@hotmail.fr


nouveau message Répondre Recherche



Autre liens sur le site pour Ben Harper : Discographie Ben Harper - Tee Shirt Ben Harper - Poster Ben Harper
plan Plan du Forum Tablatures||Tags : etc, harper, ben, BEN, HARPER, arthur, elliott, murphy, neil