tabs de gerald de palmas sur la route et de calogero en apesanteur


nouveau message Répondre
Recherche

moustik6

1 photo
#
bonjour
quelqu'un connait il la tablature exacte de
en apesanteur de calogero
et sur la route de de palmas


merci
vive la guitare ++



#
----6-7---------4-4-6----6-7---------4-4------------
--4-----7-6-6-7--------4-----7-6-6-7-----7-7-6-6-4--
----------------------------------------------------
----------------------------------------------------
----------------------------------------------------
----------------------------------------------------
tien sa c'est en apesanteur en mode facile

#
E||-------------------------|------------------------|------------------------|
B||--4-------------------4--|----------------5----4--|------------------------|
G||--4----x---x----------4--|------x---x-4---4----4--|------x-----------------|
D||--4----x---x----4--6--4--|------x---x-4h6------4--|------x---x----4--6/----|
A||--2----------6--------2--|------x--------------2--|------x---x-6-----------|
E||-------------------------|------------------------|---------------------2--|



-----------------------------||-------------------------|
-----------4h5---5-----------||---4------------------4--|
--------3--4-----4-----------||*--4-------x----------4--|
-----4-----4h6---6--4h6h4/2--||*--4-------x----4--6--4--|
--4--------------------------||---2---------6--------2--|
-----------------------------||-------------------------|



-----------------------|-----------------------|------------------------------||
---------------5----4--|-----------------------|-----------4h5---5------------||
---------x-4---4----4--|-----------------------|--------3--4-----4-----------*||
---------x-4h6------4--|---------x----4--6/----|-----4-----4h6---6--4h6h4/2--*||
--------------------2--|---------x-6-----------|--4---------------------------||
-----------------------|--------------------2--|------------------------------||



-------------------------|-----------------------|------------------------|
---4------------------4--|---------------5----4--|------------------------|
*--4-------x----------4--|---------x-4---4----4--|------x-----------------|
*--4-------x----4--6--4--|---------x-4h6------4--|------x---x----4--6/----|
---2---------6--------2--|--------------------2--|------x---x-6-----------|
-------------------------|-----------------------|---------------------2--|



-----------------------------|------------------------|------------------------|
-----------------------------|--4------------------4--|----------------5----4--|
--------3--------4--4--------|--4-------x----------4--|------x---x-4---4----4--|
-----4-----4-----6--4h6h4/2--|--4-------x----4--6--4--|------x---x-4h6------4--|
--4--------------------------|--2---------6--------2--|------x--------------2--|
--------------0--------------|------------------------|------------------------|



-------------------------|------------------------|-------4---4-------4--x-x-|
-------------------------|------------------------|--5----5---5-------5--x-x-|
------x------------------|-----------3--1---------|--4----4---4-------4--x-x-|
------x---x----4--6------|--------4-----2------2--|--2----------2--2-----x---|
------x---x-6------------|-----4------------------|--------------------------|
---------------------x-x-|--2---------------------|--------------------------|



--6--6--7h6-------------|-----------2-----------0--|-------0---0-0-------0--|
--7---------7-----------|--------4-----------2-----|--0----0---0-0--4----0--|
--6------------6--------|-----4-----------2--------|--1----1---1-1--4----1--|
------------------------|--------------------------|--2----2-----2--4----2--|
------------------------|--2-----------0-----------|------------------------|
------------------------|--------------------------|------------------------|



-------0----------0----|--2----------------|-----------------------|
-------0----------0----|--2----------------|--4----4---x---2----2--|
----1--1--1----1--1----|--3----------------|--4----4---x---2----2--|
----2-----2----2-------|--4----------------|--4----4---x---2----2--|
-----------------------|-------------------|--2--------------------|
-----------------------|-------------------|-----------------------|



-------0---0------0----|-----------------------|-------0---0--------------|
-------0---0------0----|--4----4---x---2----2--|-------0---0--------------|
--1----1---1---1--1----|--4----4---x---2----2--|--1----1---1---x------4---|
--2----2-------2--2----|--4----4---x---2----2--|--2----2-------x--4---4h6-|
-----------------------|--2--------------------|------------------4h6-----|
-----------------------|-----------------------|--------------------------|



-----------------------|-------0--0------------|--------------------|
--4----4---x---2----2--|-------0--0----4----5--|------------5--5----|
--4----4---x---2----2--|--1----1--1----4----6--|------------6--6----|
--4----4---x---2----2--|--2----2-------4----6--|------------6--6----|
--2--------------------|---------------2----4--|------------4--4----|
-----------------------|-----------------------|--------------------|



--2----------------|-------------------------|----------0------0-----|
--2----------------|--4----------------------|------3---3------3-----|
--3----------------|--4----------------2--1--|------1---1---1--1--1--|
--4----------------|--4-------4-----2-----2--|------2-------2-----2--|
-------------------|--2----6-----0-----------|-----------------------|
-------------------|-------------------------|-----------------------|



----------------------0--|-------------------||------------------------|
--4-------------------0--|-------------------||------------------------|
--4-------------------1--|------------------*||------------------------|
--4-------4--7--6--4--2--|------------------*||------2--2--2--2--2-----|
--2----6-----------------|-------------------||------2--2--2--2--2-----|
-------------------------|-------------------||------0--0--0--0--0--0--|



-------------------------|------------------------|--------------------------|
-------------------------|------------------------|--------------------------|
-------------------------|------------------------|--------------------------|
-------------------------|------------------------|--------------------------|
--4--4--6-----4----6--6--|----4--6----4--4--6--4--|--2--2--------2--2--------|
--2--2--2--2--2----2--2--|----2--2----2--2--2--2--|--0--0--3--4--0--0--3--4--|



--------------------------|--------------------------|
--------------------------|--------------------------|
--------------------------|--------------------------|
--------------------------|--------------------------|
--2--2--------2--2--------|--4--4--6--4--4--4--6--4--|
--0--0--3--4--0--0--3--4--|--2--2--2--2--2--2--2--2--|



--------------------------|--------------------------|-------------------------|
--------------------------|--------------------------|-------------------------|
--------------------------|--------------------------|-------------------------|
--------------------------|-----------------------4--|----4--6--4--4--4--6--4--|
--4--4--6--4--4--4--6--4--|--2--2--------2--2-----2--|----2--2--2--2--2--2--2--|
--2--2--2--2--2--2--2--2--|--0--0--3--4--0--0--4-----|-------------------------|



--------------------------|--------------------------|-------------------------|
--------------------------|--------------------------|-------------------0--0--|
--------------------------|--------------------------|----------1--1--1--1--1--|
--------------------------|--------------------------|--2----2--2--2--2--2--2--|
--4--4--6--4--4--4--6--4--|--4--4--6--4--4--4--6--4--|--2----2--2--2--2--2--2--|
--2--2--2--2--2--2--2--2--|--2--2--2--2--2--2--2--2--|--0----0--0--0--0--0--0--|



-------------------|-----------------------|-------0---0-0--0--0----|
--0----------------|--4----4---x---2----2--|-------0---3-3--0--3----|
--1----------------|--4----4---x---2----2--|--1----1---1-1--1--1----|
--2----------------|--4----4---x---2----2--|--2----2----------------|
--2----------------|--2--------------------|------------------------|
--0----------------|-----------------------|------------------------|



-----2--------------0--x--|-------0---0---------------|----------------0----0--|
--------4--------2-----x--|-------0---0---------------|--4----4---x-2--2----0--|
--4--------4--2--------x--|--1----1---1-----------4---|--4----4---x-2--2----1--|
--------------------------|--2----2-----------4---4h6-|--4----4---x-2-------2--|
--------------------------|----------------2--4h6-----|--2---------------------|
--------------------------|-------------4-------------|------------------------|



------0--0------------|-----------------------|--2----------------------|
------0--0----4----5--|------5--5--5--5--5----|--2----------------------|
------1--1----4----6--|------6--6--6--6--6----|--3--3--3--3--3--3--3----|
------2-------4----6--|------6--6--6--6--6----|--4--4--4--4--4--4--4----|
--------------2----4--|------4-----------4----|-----4--4--4--4--4--4----|
----------------------|-----------------------|-----2--2--2--2--2--2----|



----------------0----0--|------0--0-------0----|---------------------0--|
--4----4---x-2--2----0--|------0--0-------0----|--4----4---x-2--2----0--|
--4----4---x-2--2----1--|------1--1----1--1----|--4----4---x-2--2----1--|
--4----4---x-2-------2--|------2-------2--2----|--4----4---x-2--2----2--|
--2---------------------|----------------------|--2---------------------|
------------------------|----------------------|------------------------|



------0---0---------------|----------------0----0--|------0--0------------|
------0---0---------------|--4----4---x-2--2----0--|------0--0----4----5--|
------1---1-----------4---|--4----4---x-2--2----1--|------1--1----4----6--|
------2-----------4---4h6-|--4----4---x-2-------2--|------2-------4----6--|
---------------2--4h6-----|--2---------------------|--------------2----4--|
------------4-------------|------------------------|----------------------|



------------------|-------------------|--------------------|
------------------|--6----------------|--------------------|
------------------|--4----------------|--4--------4--------|
------------------|--6----------------|--4--------4--------|
------------------|--5----------------|--2--------1--------|
------------------|-------------------|--------------------|



--------------------|--3-----------------|--0----------------|
--------------------|--3-----------------|--0----------------|
--4--------4--------|--4-----------------|--1----------------|
--4--------4--------|--3--------------0--|--2----------------|
--0--------x--------|--5-----------------|--2----------------|
-----------4--------|--3-----------------|--0----------------|



--7----------------||
--7----------------||
--8----------------||
--9----------------||
--9----------------||
--7----------------||

tien et sa c'est toute la chanson sur la route

#
Salut, dit , j'aime bien calo aussi.
Est-ce que tu connaitrais en apesanteur en entier ?? Si oui, peux-tu me la mettre s'il te plaît
Je debute en guitare et j'aimerais bien aprendre quelques trucs dont calo.

Merci d'avance !! smiley-guitar

Tiffany

pascal17

Petit causeur
Jeune tabber
Petit Downloader
11 photos
Membre VIP
41 messages
Modérateur
#
bonjour, bienvenue,

il est prudent de regarder la date avant de repondre.
là par exemple, le sujet date de 2006,
c'est donc pas ssur que lui te reponde...

Mais qqqun d'autre j'espere.

pascal17

Petit causeur
Jeune tabber
Petit Downloader
11 photos
Membre VIP
41 messages
Modérateur
#
Tablature "électronique" de en apesanteur :
http://www.youtube.com/watch?v=1I7AnGTz3zA

C'est à dire avec paroles + accords + soutien rythmique.
Amusez-vous bien...


nouveau message Répondre Recherche


plan Plan du Forum Tablatures||Tags : route, apesanteur, calogero, palmas, gerald, tabs, bonjour, quelqu, vive