bloquer une corde


nouveau message Répondre
Recherche

#
Bonjour,je voudrais jouer la tablature de Highway to hell de acdc mais au début la tablature fait ça:

---------------------------------------
---------------------------------------
--2-2-2-----2-2-2-----2-2-2------------
--0-0-0-----0-0-0-----0-0-0------------
---------------------------------------
--2-2-3-----2-2-3-----2-2-3------------
et je ne sais pas comment faire pour bloquer la corde entre 0 et 2 ou 3.

Merci pour toute aide.



#
Bloquer une corde ??? L'étouffer ? Pose légerement ton doigt pour éviter qu'elle sonne sinon tu peux la jouer c'est pas grave

#
J'ai pas bien compris...

Tu veux parler de la 5 ème corde ?

---------------------------------------
---------------------------------------
--2-2-2-----2-2-2-----2-2-2------------
--0-0-0-----0-0-0-----0-0-0------------
--------------------------------------- <== Celle là ?
--2-2-3-----2-2-3-----2-2-3------------

Tu n'as pas besoin de la jouer celle-ci...

#
Je sais que je ne dois pas la jouer mais pour jouer les 3 cordes en même temps faut bien que je glisse et j'arrive pas à la sauter cette 5éme corde en glissant.Donc je voulais savoir si je pouvais l'étouffer.
Mism0 tu crois que c'est pas grave si je la joue mais ça risque de pas rendre la même sonorité.

#
oui tu peux etouffer la corde en question en l'éffleurant légèrement pour ne plus qu'elle sonne


#
How merci ca va me servir a moi aussi ! bump

pascal17

Petit causeur
Jeune tabber
Petit Downloader
11 photos
Membre VIP
51 messages
Modérateur
#
Si tu la joues comme ca,
tu n'auras rien à bloquer,
et tu pourras la faire sonner d'enfer (lol) quand meme..

A D/f# G D/f# G D/F# G D/F# A
E------------------------------------------------------------------------------
B-----------2--2--2-----------3--3--3------3--3--3-----3--3--3-------------2--2-
G-----------2--2--2-----------2--2--0------2--2--0-----2--2--0------2-----2--2-
D-----------2--2--2-----------0--0--0------0--0--0-----0--0--0------0-----2--2-
A-----------0--0--0---------------------------------------------------------------0--0-
E------------------------------------------------------------------------------

#
Ok merci pour les infos

#
sinon ya une technik que j'utilise...!!mais je ne sais pas comment te lexpliqué hummm !! c kom un arpege un peu!!tu prends ton index et ton pouce (ta main qui gratte^^) ac ton pouce tu gratte la corde mi donc la 2 et ac ton index en meme tps tu gratte ac les deux autres ncases !! tu ma compris lo??


nouveau message Répondre Recherche


plan Plan du Forum Débutants||Tags : -----, corde, bloquer, tablature, acdc, debut, highway, hell, bonjour