Petites phrases du moment !


nouveau message Répondre
Recherche

#
Bonjour à toutes et tous ami(e)s gratteux(ses) ! maitre

Voilà, après plusieurs années à gratter sur ma folk j'ai enfin décidé d'acheter une electrique, j'ai opter pour un modèle comme celui-ci: http://www.guitariste.com/materiel/Guitare,Samick,greg-bennett-formula-telecaste... (m'enfin ça, on s'en fiche icon_cheesygrin )

Et donc j'aimerai que quelques uns d'entre vous (et Dieu sait si vous êtes nombreux sur ce très bon site) me donne une phrase qu'il aime bien joué et qui sonne bien à l'electrique pour que je m'habitue unpeu à mon nouvel instrument, et surtout pour en profiter un maximum avant la rentrée sad

Je suis plutôt orienté blues...


Merci à toutes et tous, bon week end, bonne fin de vacances si j'ai pas déjà fini pour certains et au plaisir !

P.S: Si quelqu'un a des phrases à la Popa Chubby, je suis preneur icon_cheesygrin smiley-guitar



#
Beuh... Personne a un truc sympa à jouer à l'electrique ? sad

#
Europa

#
Paganini 5th caprice

#
Paganini 5th caprice pr debuter..

#
Paganini 5th caprice pr debuter..

#
E||------------------------|------------------------|------------------------||
B||------------------------|------------------------|------------------------||
G||------------------------|--5p----3---------------|------------------------||
D||-------------3s----5----|-------------5s----3----|------------------------||
A||--3s----5---------------|-------------5s----3----|--5s----3----3----0----||
E||------------------------|------------------------|------------------------||

h - hammer on
p - pull off
s - legato slide

Ca devrait pas mal sonner wink

#
]-----------------------------------------------------
]-------------------------------------------------------------------5/7-0------
]-------------------------------------------------------------------5/7-0------
]---------------------------------------------------5/-7---0-3/5---------8-7-5----
]--------------5/-7---------009-007-005-003/-5---0-3/5---------8-7-5------------------
]009-007-005-003/-5--------------------------------------------------



voilouuuuu icon_cheesygrin sa viens de moi no copyright fin jsé pas si c bien ou pas tu me diras sa , moi perso jtrouve sa passe sa un ti son old rock et bleues "un ti peu"!! A JOUER RAPIDEMENT!!!

#
dsl il y a eu un tu probleme le premier glissé (5/7) va ac le glissé de la corde "la"...

---------5/7--------------------
...005-3/5--------------------


nouveau message Répondre Recherche


plan Plan du Forum Tablatures||Tags : electrique, bien, enfin, toutes, bon, phrases, greg-bennett-formula-telecaster, guitare, samick