Le retour de la tab mystère!


nouveau message Répondre
Page 1 de 2
Recherche

#
Voilà un ptit jeu sorti tout droit des profondeur abyssales de partoch, ca aurait été trop dommage de l’oublier :
la tab mystère !
Le principe est simple : il suffit de deviner quelle chanson a été tabbée (pour ceux qui sont dur de la comprenette : tu prends tes doigts, ta gratte, tu joues, t’écoutes et tu reconnais)

On commence avec une ptite intro facile :

|--------------------------------------------------------------------|
|--------------------------------------------------------------------|
|-----2------1------4------6------7------6------4------2-------------|
|--------------------------------------------------------------------|
|--------------------------------------------------------------------|
|---2----2-0----0-4----4-5----5-7----7-5----5-4----4-2----2----------|

(snif !)

Bien entendu, celui qui trouve enchaine avec une nouvelle tab…


J'allais manquer a tous mes devoir: ceci constitue officiellement le
rite d'initiation pour tous les nouveau partochards ! icon_cheesygrin



#
on m'a dit que c'était du SAOD mais je ne connais pas le titre.

#
C'est ATWA de SOAD
A MOI
---------------------------
-------0-1----------------
---------------------0--2
----2------------------
--0---------------3-----
----------------1--------

#
californication des red hot icon_cheesygrin (apparemment pour que la mise en page soit bonne, faut que j'ecrive plus, alors voila, c'est fait chanteur )


..F#m................A..................F#m................A.......E......
|------------------|------------------|------------------|-------|-------|
|------------------|--------2------2--|------------------|---2---|---0---|
|--------2------2--|------2------2----|--------4------4--|---2---|---1---|
|------4------4----|----2------2------|------4------4----|---2---|---2---|
|----4------4------|--0---------------|----4------4------|---0---|---2---|
|--2---------------|------------------|--2---------------|-------|---0---| x2



#
JE CROIT QUE C'EST STADIUM ARCADIUM DES RHCP

je met que ça au cas ou ma réponse serait fausse dites moi si je me trompe
-------------------------
---------------------------
-0---3---5------0---3---6---5
-0---3---5------0---3---6---5
---------------------------
---------------------------

#
smoke on the water smiley-guitar


E||------------------------|-------------------------|------------------------|
B||--------------3-----2h--|--3------------3-----2h--|--3------------3-----2--|
G||------------------------|-------------------------|-------2----------2-----|
D||-----------------0------|---------0--------0------|------------0-----------|
A||------------------------|------------0------------|------------------------|
D||------------------------|-------------------------|------------------------|


--------------------0----|-----0-1-0------------------|
--3-----2-----3--3-------|-----------3-3-----3--------|
-----------2-------------|----------------2-----------|
-----0-------------------|--0-------------------------|
-------------------------|-------------------------0--|
-------------------------|----------------------0-----|


apparement darthy veut que remplisse mon message avec plein de mots pour améliorer la mise en page, j'éspère que ça suffira.

#
rage of rock a écrit :
JE CROIT QUE C'EST STADIUM ARCADIUM DES RHCP


en effet wink

phil, ecrit plus pour une bonne mise en page stp... icon_redface (moi?? chiant ?? hum icon_cheesygrin )

#
personne ne connait?

#
(merci phil)
pour ma part... nan smyleybleu

#
l'air me dit quelque chose mais honnetement, pour trouver le nom... icon_redface
Oups en plus ma guitare est désaccordée... j'ai une grosse flemme là...

#
Ca me fait penser à la mélodie de titanic . . . j'ai essayé de le tabber mais je vois pas du tout, et je peux pas le jouer je suis pas gratteux, (ou alors il me manque 2 cordes !!!)

#
c'est the doors non?

#
Bonsoir !

Il me semble que c'est "The End"...wink

Bonne nuit !

#
yep! c'est The end des Doors bravo

#
wink

Ce côté "orientalisant","indouhisant" est du plus bel effet avec la voix profonde de Morrison...
Un super morceau,pas si dur en plus (bon,vers la fin,ça "galope" quand même,je crois).

Je suis désolé,je ne poste pas de tab,parce qu'en fait,je n'ai pas trop le temps (saleté de dossiers de TD à rendre demain...icon_redface)

Bonne nuit !wink



nouveau message Répondre
Page 1 de 2
Recherche


plan Plan du Bienvenue au PUB !!||Tags : ----, ------, tab, ete, mystere, simple, deviner, suffit, quelle