tablature "là ou je t'ammenerai"


nouveau message Répondre
Recherche

#
je cherche la tablature de cette chanson de florent pagny,si vous l'avez merci d'avance bravo
on trouve des partitions gratuites? smile_cool



#
smiley-guitar SVP love

#
tu peux m'envoyer ton adresse mail par MP,
ou sur un 'contact' de mon site...
à bientôt.

#
salut
j'ai vu que quelqu'un te demandais la tablature de là ou je t'emmenerai !
ça m'interess moi aussi mais je suis qu'assi débutante

je cherche des tablatures de ce style là

Le Forestier Maxime / education sentimentale


E 0-1-0---------------------0-1-0-----1-0----
B ------3-1-0-------0-1---3-------3-------3--
G ------------2-1-2-----2-----------0-------0
D -------------------------------------------
A -------------------------------------------
E -------------------------------------------


E 3-5-3-1-0-----------0-0-1-0----------------
B ----------0-1-0-1-3---------3-1-1----------
G -------------------------------------------
D -------------------------------------------
A -------------------------------------------
E -------------------------------------------


si tu en connais peux tu me les faire connaitre
merci fafouette 1


nouveau message Répondre Recherche


plan Plan du Forum Tablatures||Tags : tablature, pagny, florent, chanson, ammenerai, cherche, avez, merci, gratuites