Tab de chanson d'Horreur


nouveau message Répondre
Recherche

filc

2 photos
#
Je sais, ca a pas forcément ca place dans le forum débutant...
Mais je me suis dit que ca pourrait étre des tab pour débuter ? non ?

Donc voila, je cherche des tab dans le style chanson d'horreur.
J'en ait une pour ce que ca interresse.
Je l'ai pas mis dans les tablatures parceque elle est pas a 100% de moi, donc je savais pas si j'avais le droit endesaccord3


Wednesday 13 - Haunt Me
***********************

Tablature original par Johan Fernquist.
Légerement modifier par moi, filc, pour que ca rende mieux a la gratte et pour que je puisse la jouer tout seul endesaccord3

J'ai essayer d'indiquer les grande différence de rythme en espace plus ou moins grand entre les "accords".
Ecouter la chanson pour le rythme exacte.

-Intro :
********
A jouer plusieurs fois

e |-----------------------------------------------------------------|
B |-----------------------------------------------------------------|
G |-----------------------------------------------------------------|
D |-----------------------------------------------------------------|
A |-------------------------------------------------4-4-4-3-3-3-3-3-|
E |-1-1-1-1-1-1-1-1-4-4-4-3-3-3-3-3-1-1-1-1-1-1-1-1-----------------|

Et terminer par :

e |-----------------------------------------------------------------|
B |-----------------------------------------------------------------|
G |---------------------------------------------------6-6--5-5------|
D |---------------------------------------------------6-6--5-5------|
A |---------------------------------------------------4-4--3-3------|
E |-1-1-1-1-1-1-1-1-4-4-4-3-3-3-3-3-1-1-1-1-1-1-1-1-----------------|


-Couplets :
***********
A jouer une, ou plusieurs fois, comme vous le sentez...

e |-----------------------------------------------------------------|
B |-----------------------------------------------------------------|
G |-------------------------------------------------6-6-6-5-5-5-5-5-|
D |-3-3-3-3-3-3-3-3-6-6-6-5-5-5-5-5-3-3-3-3-3-3-3-3-6-6-6-5-5-5-5-5-|
A |-3-3-3-3-3-3-3-3-6-6-6-5-5-5-5-5-3-3-3-3-3-3-3-3-4-4-4-3-3-3-3-3-|
E |-1-1-1-1-1-1-1-1-4-4-4-3-3-3-3-3-1-1-1-1-1-1-1-1-----------------|


A terminer par


e |-----------------------------------------------------------------|
B |-----------------------------------------------------------------|
G |---------------------------------------------------6-6--5-5------|
D |-3-3-3-3-3-3-3-3-6-6-6-5-5-5-5-5-3-3-3-3-3-3-3-3---6-6--5-5------|
A |-3-3-3-3-3-3-3-3-6-6-6-5-5-5-5-5-3-3-3-3-3-3-3-3---4-4--3-3------|
E |-1-1-1-1-1-1-1-1-4-4-4-3-3-3-3-3-1-1-1-1-1-1-1-1-----------------|

Suivit de (normalement c'est en meme temps que ce qu'il y a au-dessus
mais bon, avec une seul guitare c'est chaud...). A jouer plusieur fois.
~ : fait vibrer la corde avec le doigt

e |------------------------------|
B |-6~~---6~~---6~~---6~--6~-----|
G |----5~~---5~~----5~------5~~--|
D |------------------------------|
A |------------------------------|
E |------------------------------|

-Solo :
*******
Trés mickey comme solo, mais bon...
Laisser sonner les cordes jusqu'a la prochaine note.

-------8----6--8-----9--|-----8----6----4----6--|--------------------------|
--6---------------------|-----------------------|-----6--6-----------------|
------------------------|-----------------------|--------------------------|
------------------------|-----------------------|--------------------------|
------------------------|-----------------------|--------------------------|
------------------------|-----------------------|--------------------------|


--4-----4--3-----3--3-----|-------8----6--8-----9--|-----8----6----4----6--|
--------------------------|--6---------------------|-----------------------|
--------------------------|------------------------|-----------------------|
--------------------------|------------------------|-----------------------|
--------------------------|------------------------|-----------------------|
--------------------------|------------------------|-----------------------|


--------------------------|--4--4-----3--3-----------|
-----6--6-----------------|--------------------------|
--------------------------|--------------------------|
--------------------------|--------------------------|
--------------------------|--------------------------|
--------------------------|--------------------------|


Donc si vous en avez, n'hésiter pas ! bump



#
ma composition sepcialement faite pour toi

e |-------------------------------------------------------------------------------------|
B |-------------------------------------------------------------------------------------|
G |------------------------------------------------------------------------------------|
D |------------------------------------------------------------------------------------|
A |------------------------------------------------------------------------------------|
E |-0-0-0-0---0-0-0-0-3-2-1-0-0-0-0---0-0-0-0-3-2-1-0-3-2-1-0-3-2-1-0-3-2-1-0-------|


e |------------------------------------------------------------------------------------------------------------|
B |------------------------------------------------------------------------------------------------------------|
G |------------------------------------------------------------------------------------------------------------|
D |-----2-----2-----2---3-----3-----3---2-----2-----2---3-----3-----3---2-------------------------------------|
A |-----2-----2-----2---3-----3-----3---2-----2-----2---3-----3-----3---2-------------------------------------|
E |-0-0---0-0---0-0---0---0-0---0-0---0---0-0---0-0---0---0-0---0-0---0---0-3-2-1-0-3-2-1-0-3-2-1-0-3-2-1-0-0|

e |---------------------------------------------------------------------------------------------------|
B |--------------------------------------------------------------------------------------------------|
G |--------------------------------------------------------------------------------------------------|
D |-2---3-----5-----2---3---5-----2--3---5----------------------------------------------------------|
A |-2---3-----5-----2---3---5-----2--3---5----------------------------------------------------------|
E |----0---0--3-0-0---0---0-3-0-0---0--0-3-0-3-2-1-0-3-2-1-0-3-2-1-0-3-2-1-0----------------------| etc tu refait le morceau du debut une foi fini

un conseille fait le rapidement si tu le fait lentement sa ressemble a rien voila amuse toi bien

filc

2 photos
#
Un grand merci a toi love pedromact love !!! (juste affectif les coeur hein ? pas plus loin icon_cheesygrin )
Jvais allez essayé ca juste aprés.

Hello, I am me. Who the hell are you ?
nardil

Membre Banni
Jeune tabber
#
Je ne sait pas si un peu considérer ça comme une musique d'horreure mais je te propose l'intro de of sind and shadow ou encore mieu : brkrepeatstart incantations of the apprentice brkrepeatend les deux de symphonie X je pense que incantations ... te plaira mais attention aux doigts.

filc

2 photos
#
J'ai pas trouver de tab de sind and shadow,
et je n'ai trouvé qu'une tab de incantations of the apprentice sur mysongbook.

T'aurait pas des liens ?

Hello, I am me. Who the hell are you ?
nardil

Membre Banni
Jeune tabber
#
Voili voilou pour incantations....http://213.251.138.125/tab-tab_download-id_tablature=40595.htm

Je peu pa te promettre que la tab soi parfaite bien sur endesaccord1 mais bon sa doit etre a peu près sa!!

filc

2 photos
#
Merci pour la tab de symphonie X.

pedromact > J'ai mit ta tab en forme sur GP5, j'ai rajouter une seconde guitare qui fait une sorte de solo en méme temps et un batterie.
Envoie moi un MP si tu la veut (c'est encore qu'une ébauche bien sur !).
Si t'a pas GP5 je peux toujours te filer le midi.

Hello, I am me. Who the hell are you ?
#
Heu... vos tablatures ont l'air géniales, à n'en pas douter. Seulement, une question, ne connaissez-vous pas une tablature de film d'horreur? Si oui, je serais très heureux que vous me la faisiez parvenir. Merci icon_cheesygrin

blast 23

10 photos
2 messages
#
bah vendredi 13 sa dois se trouvé

cordialement blast
sakatrapo

Artiste très motivé
7 photos
264 messages
#
des trucs d'horreur? il y a tout Jean Louis Aubert!

3 membres aiment ça

jeguil

Artiste participatif
9 photos
144 messages
#
blast 23

10 photos
2 messages
#
oui ou le dernier album de sylvie vartan.

1 membre aime ça

cordialement blast

nouveau message Répondre Recherche


plan Plan du Forum Débutants||Tags : ----, -----, jouer, les, par, tab, donc, fois, chanson