piti souci de tablature


nouveau message Répondre
Recherche

#
slt a tous ca va j'ai un petit souci avec le tablature quand je voi :


-------------------------------
-------------------------------
-------------------------------
-------------------------------
----------2-3------------------
2-2-4-4-5----4-5-1-3-6-4-1-2-0-

c du n'importe koi je c'est mais le 2 et le 3 sa veut dir quoi(je parle des ligne) aidez moi svp merci



#
 Citation :
-------------------------------
-------------------------------
-------------------------------
-------------------------------
-----------2-3------------------
2-2-4-4-5----4-5-1-3-6-4-1-2-0-


bin tu joue les notes cases 2, 2, 4, 4... sur la corde de Mi grave (la plus grosse)
et aprés le premier 5 tu joues cases 2 et 3 sur la corde de La (celle en dessous)

#
fan-de-soad a écrit :
et aprés


oui enfin en même temps le 2 et le 5 ...


sinon c'est très certainement expliqué dans la partie "débutants" du site smyleybleu (j'ai même pas regardé mais bon ...)

#
ben69210 a écrit :


oui enfin en même temps le 2 et le 5 ...



nan je pense pas vu que quand tu cite son post bah il a pas mi le 2 au dessus du 5 mais aprés icon_redface

#
ah ui autant pour moi ...

enfin quoi qu'il arrive c'étiat pas la question icon_cheesygrin

#
oui lol je pense moi aussi que l'on joue separement les deunx notes ^^'

#
ben69210 a écrit :

fan-de-soad a écrit :
et aprés


oui enfin en même temps le 2 et le 5 ...


sinon c'est très certainement expliqué dans la partie "débutants" du site smyleybleu (j'ai même pas regardé mais bon ...)


effectivement va dans la partie débutants
je crois que l'explication des tabltures est dans la partie solfege...je crois


nouveau message Répondre Recherche


plan Plan du Forum Débutants||Tags : tablature, souci, piti, importe, voi, quand, koi, slt, petit