Robbie Williams - She's the one


nouveau message Répondre
Recherche

#
***

clef-treble note-4 note-8 note-16

Bon jour

Je recherhce la melodie de Robbie Williams - She's the one , une melodie que l'on puisse juste tout seul avec sa gratte ( donc pas l'aconpagnement =)

Je suis comme on dirai "desepérè" smyleybleu
Merci a vous
Bonne Gratte


smiley-guitar


***



#
La melodie, donc ce qu'il chante retranscrit a la gratte:

e|------------6--8--10--|----------------8--10--|----------------8--10--|
B|----------------------|------------11---------|------------11---------|
G|----------------------|-----------------------|-----------------------|
D|----------------------|-----------------------|-----------------------|
A|----------------------|-----------------------|-----------------------|
E|----------------------|-----------------------|-----------------------|

---------------8-10---|---------13-15--13----------|
-----------11---------|--------------------15--13--|
----------------------|----------------------------|
----------------------|----------------------------|
----------------------|----------------------------|
----------------------|----------------------------|

----------------------10--8--|----10--------9-----------|------------------|
------13---------------------|--------------10--11--11--|------------------|
---15-------------12---------|--------------------------|------------------|
--------------15-------------|--------------------------|------------------|
-----------------------------|--------------------------|------------------|
-----------------------------|--------------------------|------------------|

---------13-15--13----------|----------------------10--8--|
--------------------15--13--|------13---------------------|
----------------------------|---15-------------12---------|
----------------------------|--------------15-------------|
----------------------------|-----------------------------|
----------------------------|-----------------------------|

----10--------9-----------|------------------|------------6--8--10--|
--------------10--11--11--|------------------|----------------------|
--------------------------|------------------|----------------------|
--------------------------|------------------|----------------------|
--------------------------|------------------|----------------------|
--------------------------|------------------|----------------------|

----------------8--10--|----------------8--10--|----------------8--10--|
------------11---------|-----------11----------|------------11---------|
-----------------------|-----------------------|-----------------------|
-----------------------|-----------------------|-----------------------|
-----------------------|-----------------------|-----------------------|
-----------------------|-----------------------|-----------------------|

----------13-15--13----------|-----------------------10--8--|
---------------------15--13--|-------13---------------------|
-----------------------------|----15-------------12---------|
-----------------------------|--------------15--------------|
-----------------------------|------------------------------|
-----------------------------|------------------------------|

----10--------9-----------|------------------|------------------|
--------------10--11--11--|------------------|------------------|
--------------------------|------------------|------------------|
--------------------------|------------------|------------------|
--------------------------|------------------|------------------|
--------------------------|------------------|------------------|

----8-6-8--8-10-8-6------8-6-|--8-6-8-10-8-6------6------|
--------------------8--------|---------------8-----------|
-----------------------------|---------------------------|
-----------------------------|---------------------------|
-----------------------------|---------------------------|
-----------------------------|---------------------------|

------13-------10----8-10-|---8-6---------------|
--------------------------|---------------------|
--------------------------|---------------------|
--------------------------|---------------------|
--------------------------|---------------------|
--------------------------|---------------------|

----8-6-8-6-8-10-8-6-------8-6-|--8-6-8-10-8-6------6-------|
----------------------8--------|---------------8------------|
-------------------------------|----------------------------|
-------------------------------|----------------------------|
-------------------------------|----------------------------|
-------------------------------|----------------------------|

----8--8--8--11-8--11----15-|------------------|--13------------------10--|
----------------------------|------------------|--------------11--13------|
----------------------------|------------------|--------------------------|
----------------------------|------------------|--------------------------|
----------------------------|------------------|--------------------------|
----------------------------|------------------|--------------------------|

----------------8--10--|----------------8--10--|---------------8--10---|
------------11---------|------------11---------|------------11---------|
-----------------------|-----------------------|-----------------------|
-----------------------|-----------------------|-----------------------|
-----------------------|-----------------------|-----------------------|
-----------------------|-----------------------|-----------------------|

---------13-15--13----------|----------------------10--8--|
--------------------15--13--|------13---------------------|
----------------------------|---15-------------12---------|
----------------------------|-------------15--------------|
----------------------------|-----------------------------|
----------------------------|-----------------------------|

----10--------10----------|------------------|--------13-15--13----------|
------------------11--11--|------------------|-------------------15--13--|
--------------------------|------------------|---------------------------|
--------------------------|------------------|---------------------------|
--------------------------|------------------|---------------------------|
--------------------------|------------------|---------------------------|

----------------------10--8--|----10--------10----------|------------------|
------13---------------------|------------------11--11--|------------------|
---15-------------12---------|--------------------------|------------------|
--------------15-------------|--------------------------|------------------|
-----------------------------|--------------------------|------------------|
-----------------------------|--------------------------|------------------|

-------------------|----8-6-8--6-8-10-8-6------8-6-|--8-6-8-10-8-6------6------|
-------------------|----------------------8--------|---------------8-----------|
-------------------|-------------------------------|---------------------------|
-------------------|-------------------------------|---------------------------|
-------------------|-------------------------------|---------------------------|
-------------------|-------------------------------|---------------------------|

------13------10----8--|--10-8-6---------------|
-----------------------|-----------------------|
-----------------------|-----------------------|
-----------------------|-----------------------|
-----------------------|-----------------------|
-----------------------|-----------------------|

----8-6-8--6-8-10-8-6-------8-6-|--8-6-8-10-8-6------6------|
-----------------------8--------|---------------8-----------|
--------------------------------|---------------------------|
--------------------------------|---------------------------|
--------------------------------|---------------------------|
--------------------------------|---------------------------|

----8--8--8--11--8--11----|--15----------------|--13----------------------|
--------------------------|--------------------|------------------13--15--|
--------------------------|--------------------|--------------15----------|
--------------------------|--------------------|--------------------------|
--------------------------|--------------------|--------------------------|
--------------------------|--------------------|--------------------------|

------------------------|------------------------|------------------------|
----------------13--15--|----------------13--15--|----------------13--15--|
------------15----------|------------15----------|------------15----------|
------------------------|------------------------|------------------------|
------------------------|------------------------|------------------------|
------------------------|------------------------|------------------------|

---------13-15--13----------|----------------------10--8--|
--------------------15--13--|------13---------------------|
----------------------------|---15-------------12---------|
----------------------------|--------------15-------------|
----------------------------|-----------------------------|
----------------------------|-----------------------------|

----10--------9-----------|-------------------|---------13-15--13----------|
--------------10--11--11--|-------------------|--------------------15--13--|
--------------------------|-------------------|----------------------------|
--------------------------|-------------------|----------------------------|
--------------------------|-------------------|----------------------------|
--------------------------|-------------------|----------------------------|

----------------------10--8--|----10--------10----------|
------13---------------------|------------------11--11--|
---15-------------12---------|--------------------------|
-------------15--------------|--------------------------|
-----------------------------|--------------------------|
-----------------------------|--------------------------|

----------------10--------|---------13-15--13----------|
-------------11-----11-11-|--------------------15--13--|
--------------------------|----------------------------|
--------------------------|----------------------------|
--------------------------|----------------------------|
--------------------------|----------------------------|

----------------------10--8--|----10--------10----------|
------13---------------------|------------------11--11--|
---15-------------12---------|--------------------------|
-------------15--------------|--------------------------|
-----------------------------|--------------------------|
-----------------------------|--------------------------|

------------10--13--15--|----13------15--13-----------|
------------------------|--------------------15--13---|
------------------------|-----------------------------|
------------------------|-----------------------------|
------------------------|-----------------------------|
------------------------|-----------------------------|

-----------------------10--8--|----10--------10----------|
-------13---------------------|------------------11--11--|
----15-------------12---------|--------------------------|
---------------15-------------|--------------------------|
------------------------------|--------------------------|
------------------------------|--------------------------|

------------10--13--15--|---18-------15--13----------|
------------------------|--------------------15--13--|
------------------------|----------------------------|
------------------------|----------------------------|
------------------------|----------------------------|
------------------------|----------------------------|

----------------------10--8--|------------------|------------------|
------13---------------------|------------------|------------------|
---15-------------12---------|------------------|------------------|
--------------15-------------|------------------|------------------|
-----------------------------|------------------|------------------|
-----------------------------|------------------|------------------|

------------------|------------------|------------10----------||
------------------|------------------|----------------11--11--||
------------------|------------------|------------------------||
------------------|------------------|------------------------||
------------------|------------------|------------------------||
------------------|------------------|------------------------||


Un peu long...


Par contre, ce qui fait un peu office d'intro et qui revient toujours, j'le ferais plus comme ca:

e|----------------------------|
B|----1--3-------1--3--4-3----|
G|--3----------3--------------|
D|----------------------------|
A|----------------------------|
E|----------------------------|

Pareil que:

e|----------------------------|
B|----------------------------|
G|--3--5--7-----3--5--7--8-7--|
D|----------------------------|
A|----------------------------|
E|----------------------------|


#
Merci bcp Chirs icon_cheesygrin

#
De rien wink

#
Si Si ,

En fait je recherche quelques tablatures ,car je c'est plus trop trop quoi jouer ,alors si tu avais quelques tablature bien ( nimporte quel genre ) et deja prete sur ton ordinateur sa serai pas de refus smile
sa serai même tres tres bien venu , merci

Bonne guitare icon_redface

#
C'est quoi a peu pres ton niveau de gratte ? electrique ? acoustique ?
Et quel style tu aimes ?

Tu peux jetter un coup d'oeil ici: http://www.partoch.com/forum/post_171376,quelques+morceaux+pour+debuter.html?var...
C'est surtout pour debuter, mais quand tu sais pas quoi jouer, ca peut aider... wink

#
Merci du coup de pouce ,
Je vais allez voir ca ,

Euh je joue un peu de tout du tracy chapman en passant par saez..

Donc voila , encore un peu de mal a trouver certaine rhytmique , je cherche celle de Chuck berry-jonnhy b good smile

Merci wink

#
Desolee, j'peux pas t'aider pour celle la, j'la joue pas icon_redface

Mais de rien ^^

#
ouais vraiment bien ce petit lien smiley-guitar

devant mon pc avec la gratte .

icon_redface


nouveau message Répondre Recherche


plan Plan du Forum Tablatures||Tags : robbie, gratte, melodie, one, williams, she, puisse, recherhce, jour