Position des doigts sur Lonely Day (System of a Down)


nouveau message Répondre
Page 1 de 2
Recherche

#
Bonjour tout le monde,

voilà, je débute la guitare (j'ai une classique) et j'ai un peu du mal sur les premières notes de Lonely Day...

Quelu'un pourrait-il me dire comment enchainer la position des doigts (sans faire des noeuds...) ?
Et aussi me dire si ces accords ont des petits noms ?

Merci d'avance !

e|----------------------------|-----------------------------------|
B|-------1------------0-------|--------1------------0-------------|
G|-----2---2--------2---2-----|------0---0--------1---1-----------|
D|---2-------2----0-------0---|----2-------2----0-------0---------| x2
A|-0--------------------------|--3--------------------------------|
E|-------------3--------------|---------------2-------------------|





philarmonie

5 photos
#
j'utiliserais ce doigté:


e|----------------------------|-----------------------------------|
B|-------1------------0-------|--------1------------0-------------|
G|-----2---2--------2---2-----|------0---0--------1---1-----------|
D|---2-------2----0-------0---|----2-------2----0-------0---------| x2
A|-0--------------------------|--3--------------------------------|
E|-------------3--------------|---------------2-------------------|
.....2.3.1.3.2.P....1...1........3.2...1...2..P...1...1.....


avec P pour le pouce, 1 pour l'index, 2 pour le majeur, 3 pour l'annulaire et 4 pour l'auriculaire.

#
Merci pour ta réponse.

J'avais essayé avec ce doigté :

e|----------------------------|-----------------------------------|
B|-------1------------0-------|--------1------------0-------------|
G|-----2---2--------2---2-----|------0---0--------1---1-----------|
D|---2-------2----0-------0---|----2-------2----0-------0---------| x2
A|-0--------------------------|--3--------------------------------|
E|-------------3--------------|---------------2-------------------|
.....2.3.1.3.2.4....3...3........3.2...1...2..3...1...1.....


mais le fait d'utiliser l'auriculaire (4) pour la grave me gênait énormément pour "lever" l'index et le majeur. J'avais l'impression de ne pas pouvoir les bouger comme si le fait d'utiliser le petit doigt me bloquait les autres doigts.

Je vais essayer ton doigté ce soir.

denis-px

Artiste motivé
Jeune tabber
1 photo
Membre VIP
205 messages
Modérateur
#
j'aurais fait pouce pour les cordes mi et la et les autres doigts dans l'ordre (index , majeur et annulaire) dans le sens de la descente des cordes vers l'aigu.

la musique c'est comme l'amour seul c'est bien à plusieurs c'est mieux !
#
Ca tombe bien je la bosse en ce moment (enfin surtout le solo, d'ailleurs si quelqu'un a une tab correcte du solo je prend icon_cheesygrin ), je fais comme ça:


e|----------------------------|-----------------------------------|
B|-------1------------0-------|--------1------------0-------------|
G|-----2---2--------2---2-----|------0---0--------1---1-----------|
D|---2-------2----0-------0---|----2-------2----0-------0---------| x2
A|-0--------------------------|--3--------------------------------|
E|-------------3--------------|---------------2-------------------|
.----2-3-1-3-2-3----2---2--------3-2---1---2--2---1---1


3 = annulaire
2 = majeur
1 = index
en gros, une case pour chaque doigt

à voir si ça te convient :)

#
Pour le pouce, je pense pas que ce soit la meilleur façon, j' ai mis pas mal de temps à pouvoir jouer avec le pouce et on ma toujours conseiller d' essayer d' éviter le pouce.

fan-de-soad

1 photo
#
polard a écrit :
Ca tombe bien je la bosse en ce moment (enfin surtout le solo, d'ailleurs si quelqu'un a une tab correcte du solo je prend icon_cheesygrin )


guitar pro love

y'a pas mieux pour trouver des bonnes tabs

#
 Citation :
guitar pro

y'a pas mieux pour trouver des bonnes tabs


c'est pareil partout ta des bonne tabs et des harchi fausses...

fan-de-soad

1 photo
#
agentbombe a écrit :

 Citation :
guitar pro

y'a pas mieux pour trouver des bonnes tabs


c'est pareil partout ta des bonne tabs et des harchi fausses...


ouais mais sur mysongbook.com t'en a qui votent alors tu prends les tabs avec beaucoup d'etoiles et c'est bon icon_cheesygrin

#
defois elles sont quand meme fausse...

fan-de-soad

1 photo
#
agentbombe a écrit :
defois elles sont quand meme fausse...


lol tu cherches loin lol icon_cheesygrin

la perfection existe pas c'est sur mais bon moi j'vois un morceau meme si il n'a que 4 etoiles sur 5 j'suis content lol

chrys73

3 photos
#
Un doigt par case aussi

http://chrysssss.skyblog.com icon_cheesygrin
Il n'y pas de bons ni de mauvais, que des hommes ayant des centres d'interet differents...
#
alor moi g bien réfléchi é g bien écouté lonely day. pour le débu
il faut que tu fasse 1 barré en mi mineur a la 4eme case
é apres tu va voir sa va tt seul regarde ma partition de lonely day
mon surnom c franckyf23 voila bonne chance é bonne musik... smiley-guitar

ladyjedi

1 photo
#
salut
comme moi aussi je galérais un peu avec mes petits doitgts pas très agiles, je "triche" un peu : quand j'arpège "en retour" l'accord, je joue la corde de Ré à vide. heu... je ne sais pas si je me suis bien fait comprendre... je réexplique : d'abord, comme je suis feignasse (lol) je laisse mon accordage en standard, ce qu me donne les accords : La mineur, Fa, Do, et Mi, que l'on arpège de la plus grave à la plus aigue puis inversement ("en retour") et c'est là que j'applique ma trichouille chanteur

#
désolé d'etre un peu a la ramasse vu la date du topic mais c'est juste pour dire que ta tablature est un peu fausse. Déja, pour jouer comme tu joues, il faut s'accorder en ré (eBGDAD). Ensuite, comme dit ladyjedi, il faut jouer la derniere corde de l'arpege a vide (c'est pas de la triche c'est bien comme ça qu'il faut faire)
Sinon pour le nom des accords c'est Am, DM6/F, C et E7.
Voila c'est tout bonne gratte



nouveau message Répondre
Page 1 de 2
Recherche


plan Plan du Forum Débutants||Tags : ---, -------, des, ------------, --------, doigts, ----, position, lonely