recherche accord punk.


nouveau message Répondre
Recherche

#
je recherche des accors punk .

merci de me répondre le plus vite possible. brkcoda



crepesuzettes

2 photos
#
bah nimporte quel accord simple, en barré, avec de la bonne disto

pas plus de 3 ou 4 devraient suffir!! icon_cheesygrin

#
crepesuzettesle 31/03/2006 19:49:11

662 messages sur 100 jours

Artiste en devenir
1 photos

bah nimporte quel accord simple, en barré, avec de la bonne disto

pas plus de 3 ou 4 devraient suffir!!


tu veut dire qu'il faut des accords avec 3 ou 4 doignt ?

#
 Citation :
"tu veut dire qu'il faut des accords avec 3 ou 4 doignt ?"


Nan c'est juste que 4 accords diiferents suffisent pour faire une chanson punk comme dans les chansons des beruriers qui sont sur ce site . Tu peux aller voir si tu veux avoir un bon exemple de mélodie punk de base

Je conseille" Salut a toi" des beruriers : 4 accords.

En general les punks ne font pas dans la finesse icon_cheesygrin

#
drapsagele 31/03/2006 20:11:07

0 messages sur 100 jours

Petit Downloader

Citation"tu veut dire qu'il faut des accords avec 3 ou 4 doignt ?"


Nan c'est juste que 4 accords diiferents suffisent pour faire une chanson punk comme dans les chansons des beruriers qui sont sur ce site . Tu peux aller voir si tu veux avoir un bon exemple de mélodie punk de base

Je conseille" Salut a toi" des beruriers : 4 accords.

En general les punks ne font pas dans la finesse

donc aussi 4 note différente ex: la,sol,si,mi. c'est sa je suppose.

stitchou

Jeune tabber
3 photos
#
salut!
pour citer tu as un petit bouton en bas à droite ca t'évites de recopier le message de ton interlocuteur en plus de toutes ces données personnelles! love

alors tu veux jouer du punk...tu as des references de groupes ou artistes connus??? ca pourait nous aider pour t'orienter vers des accords pas trop difficiles (tu as l'air tout jeune tu dois être débutant...)
tu peux aussi aller voir dans la rubrique pour débutant on t'expliques les accords comment ca marche tout ca...
bon courage! wink

#
j'ai regarder j'ai trouvé des accord barré en plus c'est ce que je préfére.


merci à tous d'avoir répondue.

#
voila un exemple de mes compo :


E E E E E E E E E E E E E E E E
E||--------------------------|--------------------------|
B||--------------------------|--------------------------|
G||--7--7--7--7--7--7--7--7--|--------------------------|
D||--7--7--7--7--7--7--7--7--|--7--7--7--7--7--7--7--7--|
A||--5--5--5--5--5--5--5--5--|--7--7--7--7--7--7--7--7--|
E||--------------------------|--5--5--5--5--5--5--5--5--|


E E E E E E E E E E E E E E E E
--------------------------|--------------------------|
--------------------------|--------------------------|
--5--5--5--5--5--5--5--5--|--------------------------|
--5--5--5--5--5--5--5--5--|--5--5--5--5--5--5--5--5--|
--3--3--3--3--3--3--3--3--|--5--5--5--5--5--5--5--5--|
--------------------------|--3--3--3--3--3--3--3--3--|


E E E E E E E E E E E E E E E E
--------------------------|--------------------------|
--------------------------|--------------------------|
--7--7--7--7--7--7--7--7--|--------------------------|
--7--7--7--7--7--7--7--7--|--7--7--7--7--7--7--7--7--|
--5--5--5--5--5--5--5--5--|--7--7--7--7--7--7--7--7--|
--------------------------|--5--5--5--5--5--5--5--5--|


E E E E E E E E E E E E E E E E
--------------------------|--------------------------|
--------------------------|--------------------------|
--5--5--5--5--5--5--5--5--|--------------------------|
--5--5--5--5--5--5--5--5--|--5--5--5--5--5--5--5--5--|
--3--3--3--3--3--3--3--3--|--5--5--5--5--5--5--5--5--|
--------------------------|--3--3--3--3--3--3--3--3--|


E E E E E E E E E E E E E E E E
--------------------------|--------------------------|
--------------------------|--------------------------|
--------------------------|--------------------------|
--9--L--9--9--9--L--9--9--|--7--L--7--7--7--L--7--7--|
--9--L--9--9--9--L--9--9--|--7--L--7--7--7--L--7--7--|
--7--L--7--7--7--L--7--7--|--5--L--5--5--5--L--5--5--|


E E E E E E E E E E E E E E E E
--------------------------|--------------------------|
--------------------------|--------------------------|
--7--L--7--7--7--L--7--7--|--3--L--3--3--3--L--3--3--|
--7--L--7--7--7--L--7--7--|--3--L--3--3--3--L--3--3--|
--5--L--5--7--5--L--5--7--|--1--L--1--3--1--L--1--3--|
--------------------------|-----L--------------------|


E E E E E E E E
--------------------------|-------|-------||
--------------------------|-------|-------||
--------------------------|-------|-------||
--5--L--5--5--5--L--5--5--|-------|-------||
--5--L--5--5--5--L--5--5--|-------|-------||
--3--L--3--5--3--L--3--5--|-------|-------||




voila ... les L signifie Liaison car c'est tout en croche

#
j'ai compris. avec ton exemple.

#
Bonjour je relance le sujet! n'y a t-il que les accord de puissance pour faire du punk? smiley-guitar


nouveau message Répondre Recherche


plan Plan du Forum Tablatures||Tags : punk, recherche, des, accord, accors, merci, possible, vite, plus