chop suey! system of a down


nouveau message Répondre
Page 1 de 2
Recherche

fan-de-soad

1 photo
#
je voudrais les accords de l'intro de chop suey de soad, si vous savez...


merci



fan-de-soad

1 photo
#
personne n'a? sad

jean-bernard

3 photos
#
fan-de-soad
fan-de-soad a écrit :
personne n'a? sad

J'ai mais chez moi. je te les donne demain sur ta boite mail partoch

fan-de-soad

1 photo
#
okay merci beaucoup smile

fan-de-soad

1 photo
#
sad snif personne n'a alors sad

bon tant pis

monoboule

1 photo
#
les accords de debut? enfin l'intro ?

sa donne sa
---
---
-5-
-7-
-0-
---

ensuite

---
---
-9-
-7-
-0-
---

et ensuite

---
---
-4-
-5-
-0-
---

pour finir

---
---
-2-
-3-
-0-
---

je sais pas si c'est sa que tu voulais
pour le ritme tu fais o feeling comme on dit icon_cheesygrin

quel est le synonyme de synonyme ?
#
voila :

e|---------------------------------------------------------------|
B|---------------------------------------------------------------|
G|-5--5-5----5-5----5-5-5-5-5--5--5-/-7--7-7-7-7--7-7-7-7-7-7----|
D|-7--7-7----7-7----7-7-7-7-7--7--7-/-9--9-9-9-9--9-9-9-9-9-9----|
A|-0-----------0------------0-----0-/----------0----------0------|
E|---------------------------------------------------------------|

e|---------------------------------------------------------------------------|
B|---------------------------------------------------------------------------|
G|-4-4-4-4-4---4--4-4-4-4--4--2--2-2-2-2--2--2-2--2-2--2--------------------|
D|-5-5-5-5-5---5--5-5-5-5--5--3--3-3-3-3--3--3-3--3-3--3--------------------|
A|-0-----------0-----------0--0-----------0-------0----0--------------------|
E|---------------------------------------------------------------------------|

ensuite, tu arpège les deux notes les plus aïgues de ces accords.

bonne smiley-guitar

fan-de-soad

1 photo
#
plus facile avec ces accords:

--------------------
--0----0----0----0--
--3----5----2----0--
--5----7----3----1--
--------------------
--------------------

enfin pour ma part...

edit: pis ça sonne beaucoup mieux je trouve

#
Elle était sur le site smyleybleu

fan-de-soad

1 photo
#
ben69210 a écrit :
Elle était sur le site smyleybleu


pas grave lol

#
oua la motivation sur-humaine icon_cheesygrin

#
voici les 4 accord : (désolé j'avait tros la flemme de te mettre le rythme)
brkstart-------------------------- brkend
brkstart-------------------------- brkend
brkstart---5----7----4----2---- brkend
brkstart---7----9----5----3---- brkend
brkstart-------------------------- brkend
brkstart-------------------------- brkend
-5---5---5-- Sa tu le fait aprés
---7---7----
Bonne gratte smiley-guitar

#
Apres faut pas s'étonner qu'il ecrive 3000 messages par jour si c'est pour faire des sujets comme ca où y'a 15 reponses dans les Tablatures... smyleybleu

#
boristoglobe a écrit :
Apres faut pas s'étonner qu'il ecrive 3000 messages par jour si c'est pour faire des sujets comme ca où y'a 15 reponses dans les Tablatures... smyleybleu

Tu as raison, c'est bien mieux et beaucoup constructif de déterrer des topics vieux de plusieurs mois pour y faire une remarque inutile du genre "ouais vous postez pour rien"...

maezgat

Membre Banni
#
fan-de-soad
fan-de-soad a écrit :
plus facile avec ces accords:

--------------------
--0----0----0----0--
--3----5----2----0--
--5----7----3----1--
--------------------
--------------------

enfin pour ma part...

edit: pis ça sonne beaucoup mieux je trouve

c'est normal que tu trouve que ça sonne mieux car tu n'as pas baissé les cordes de ta guitare d'un ton comme fais daron, meme comme tous les guitaristes de métal font !



nouveau message Répondre
Page 1 de 2
Recherche


plan Plan du Forum Tablatures||Tags : chop, suey, voudrais, down, system, les, accords, merci, savez