Bassistes black metal/gothiques


nouveau message Répondre
Recherche

#
Voila c'est un forum sur les bassistes de black et de gothique.



#
Hop une tablature de Cradle Of Filth (Born In A Burial Gown.



intro (00:9) x4
G-------------------------------
D-------------------------------
A---------0~--------------------
E---1~----------4~-----1~--0~---


verse 1 (00:44) x2
C------------------------------------------------------
D------------------------------------------------------
A--4-----0-----4-----0-----5-----------2-2-2-2-0-0-0---
E-----2-----4-----2-----4-----4--5--4----------------4-


verse 2 (01:01) x2
C------------------------------------------------------
D------------------------------------------------------
A------------------------------------------------------
E-0-0---0-0-0---0-0-0---3-2-0-1---0-0---0-0-0---0-0-0--

continue...
C----------------------------------------------------------------
D----------------------------------------------------------------
A---------------------------------------------1--------0-----3---
E-4-3-0-1---0-0---0-0-0---0-0-0---3---2-0-1-------1--------------


bridge (01:18) x2
C--------------------------------------------------
D--------------------------------------------------
A--5--5--5--5--5--5--5--5--1--1--1--1--4--4--3--3--
E--------------------------------------------------


verse 1 again (01:35) x2
C------------------------------------------------------
D------------------------------------------------------
A--4-----0-----4-----0-----5-----------2-2-2-2-0-0-0---
E-----2-----4-----2-----4-----4--5--4----------------4-


verse 2 again (01:52) x2
C------------------------------------------------------
D------------------------------------------------------
A------------------------------------------------------
E-0-0---0-0-0---0-0-0---3-2-0-1---0-0---0-0-0---0-0-0--

continue...
C----------------------------------------------------------------
D----------------------------------------------------------------
A---------------------------------------------1--------0-----3---
E-4-3-0-1---0-0---0-0-0---0-0-0---3---2-0-1-------1--------------


bridge again (02:10) x2
C--------------------------------------------------
D--------------------------------------------------
A--5--5--5--5--5--5--5--5--1--1--1--1--4--4--3--3--
E--------------------------------------------------

verse 3 (02:26) x2
C---------------------------------------------------------------------
D---------------------------------------------------------------------
A-------------------------------------------2-2-1-1-1-----------------
E--1--1--1----2-1--1--1--1-0-1-2-1-0-0~---------------4-4-4-2-2-2-1-1-

continue..
C--------------------------------------------------------------------
D--------------------------------------------------------------------
A------------------------------------------2-2-1-1-1-2-2-2-4-4-4-----
E--1--1--1----2-1--1--1--1-0-1-2-1-0-0~------------------------------


verse 4 (03:00) x4
C----------------------------
D----------------------------
A----------------------------
E--4~----7~----0~----7~--9~--

two seconds in silence...

Intro again (3:33)
E-------------------------------------------------------
D-------------------------------------------------------
A--------0~----------------------------0~---------------
E--1~----------4~----1~----0~----1~----------4~----1~---

Verse 1, just a little part (03:48)
C------------------
D------------------
A--4------0--------
E-----2-------4----


verse 2 again (3:50) x2
C------------------------------------------------------
D------------------------------------------------------
A------------------------------------------------------
E-0-0---0-0-0---0-0-0---3-2-0-1---0-0---0-0-0---0-0-0--

continue...
C----------------------------------------------------------------
D----------------------------------------------------------------
A---------------------------------------------1--------0-----3---
E-4-3-0-1---0-0---0-0-0---0-0-0---3---2-0-1-------1--------------


verse 1 again (04:08) x2
C------------------------------------------------------
D------------------------------------------------------
A--4-----0-----4-----0-----5-----------2-2-2-2-0-0-0---
E-----2-----4-----2-----4-----4--5--4----------------4-


final part... (04:25)
C----------------------------------------
D----------------------------------------
E----------------------------------------
A--2~----5~----0~----5~--4~--5~--7~--2~--


nouveau message Répondre Recherche


plan Plan du Forum Basse||Tags : bassistes, black, metal, gothiques, voila, gothique, les, forum