je suis nulle je comprend rien


nouveau message Répondre
Page 1 de 2
Recherche

#
bonjours

je suis nulle sa fait même pas trois jours que j'ai commencer la guitare et j'ai 14 ans et donc je comprend pas se que veu dirs sa:

---------0------------0-----------0--------------
-----0------------0-----------0-----------0---1-0
---4---4---4----2---2---2---0---0---0---0---0----
-2------------0----------------------------------
--------------------------3-----------3----------
-------------------------------------------------

je comprend pas se que veut dire les chifre les trés enfin je sui nulle mais bon faut bien un commencement

bye et merci de votre réponse




Administrateur
#
alors ça c'est une tablature
Les traits représente chaque corde et les chiffres la case à pincer.
tu auras toutes les infos dans la rubrique "débutants" (lien en haut de chaque page) et particulierement ici : http://www.partoch.com/debutant/article_8.html
@+

#
rebonjours


merci beaucoup
maitre
@+

#
salut ame bump les lignes sont tes cordes les chiffres tes frets (cases)

ex:0 corde a vide
4 4eme fret
tes cordes de basse (les plus grosses) sont en bas comme si tu posais ta guitare sur tes genoux les cordes en haut
oilas !! j'espere avoir eclairer ta lanterne
bon gratage wink
conseil:il existe des livres pour debuter ou les explications sont tres bien faites avec un cd quelquefois
courage et perceverence icon_cheesygrin

#
bonjours 11dodu

merci à toi
et j'ai un livre avec un cd mais il ne montre aucune tablature donc voilà


meci encore bye

#
je te le dit on ne sais jamais...


(aigu, corde du bas, la fine quoi)
---------
---------
---------
---------
---------
---------
(grave, corde du haut, la grosse quoi)

#
salut

sa je le savais


mais merci quand même

#
J'ai 14ans aussi et je viens de commencer la guitare il y a deux semaines.
Et si je peux te donner un conseil commence par des morceaux sur deux cordes puis 3 puis 4...
Et après commence les accords...
( Il y a des trucs vachement bien foutus sur la page débutant ils t'expliquent les tablatures les barrés....etc)vas y jter un oeuil!!
@+++

#
salut tonio

j'ai deja jeté un oeil mais je trouve pas tu pourrais me mettre le lien qui envoi sur le topic silteplait

merci

bye

#
Voila!

http://www.partoch.com/debutant/article_8.html

Sa fait 3 mois que j'ai commencé la guitare et ce site m'a énormément aidé, il est super bien fait!

#
Moi aussi je ne suis qu'une débutante!Mai vu comment est la tablature, je te conseille de jouer une plus simple, par exemple celle de nirvana, "come as you are". Regarde là tablature ci-dessous! elle est très simple à jouer!^^

e||-------------------------------------
B||-------------------------------------
G||-------------------------------------
D||-------------------------------------
A||----------0---0---------2-----2------
E||--0-0-1-2---2---2-2-1-0---0-0---0-1-2

bye!
et j'espère t'avoir un aider!

#
e------------------------------------------------------------------
B------------------------------------------------------------------
G------------------------------------------------------------------
D------------------------------------------------------------------
A------------------0-----0--------------2--------2-----------------
E------0--0--1--2-----2-----2--2--1--0-----0--0-----0--1--2--------

c'est mieux avec les bornes tab wink

#
désolée, autant pour moi! ^^

#
salut


merci pour tout



bye

#
jcrois que tu as toutes les informations necessaire non?



nouveau message Répondre
Page 1 de 2
Recherche


plan Plan du Forum Débutants||Tags : ---, -----------, comprend, ------------, nulle, les, dirs, donc, veu