Publicité Sony Tv Bravia / José Gonzalez - Heartbreat


nouveau message Répondre
Recherche

#
Coucou à tous,

Je viens de voir la publicité à la télé, et j'aimerais connaitre les accords de la musique qui l'accompagne. Le titre c'est Heartbeat de José Gonzalez, que j'ai tout de suite aimé. love
Merci d'avance smiley-guitar



#
Bonjour,
j'voudrais savoir si quelqu'un a trouvé les accords de Heartbeats ?
Merci

#
Toujours rien ? maitre lol
tant pis j'aurais essayé smyleybleu

#
bonjour lulu, je ne les trouves pas nono plus, mais si tu veux j'ai les paroles et la traduction. micro
le 1er qui trouve previens les autres. a bientot
smiley-guitar

#
il suffisait de demander chanteur
je viens de les trouver.
bonne gratte smiley-guitar


Heartbeats - José Gonzalez


Capo I
Accordage : DADF#AD



I M I M Au
|--------------------------------|--------------------------------|
|----------------------------0---|--------------------0-----------|
|----------------------------|---|--------------------|-----------|
|----------------0---0-------|---|--------0---0-------|-----------|
|--------4h--5---|---|-------|---|4h--5---|---|-------|-----------|
|0-------|---|---|---|-------|---||---|---|---|-------|---7-------|
| |___| |___| |___| |___| |___| |___| |
P P P I M P P I M P



I M I M
|--------------------------------|--------------------------------|
|----------------------------0---|--------------------0-----------|
|----------------------------|---|--------------------|-----------|
|----------------0---0-------|---|--------0---0-------|-----------|
|--------4h--5---|---|-------|---|4h--5---|---|-------|---0-------|
|0-------|---|---|---|-------|---||---|---|---|-------|---|-------|
| |___| |___| |___| |___| |___| |___| |
P P P I M P P I M P



I Au I M I Au I M M
|--------------------------------|--------------------------------|
|--------------------2-----------|--------------------2-----------|
|------------0-------|-----------|------------0-------|-----------|
|--------4---|-------|---4-------|--------4---|-------|-----------|
|2-------|---|---2---|---|-------|0h--2---|---|---2---|-----------|
||-------|---|---|---|---|-------||---|---|---|---|---|---4-------|
| |___| |___| | |___| |___| |___| |
P P I P M P P P I P M P



M An An An I An An An Au
|--------------------------------|--------------------------------|
|--------------------------------|--------------------------------|
|--------------------0-----------|--------------------0-----------|
|------------0-------|-----------|------------0-------|-----------|
|--------5---|---5---|---5-------|4h--5---5---|---5---|-----------|
|5-------|---|---|---|---|-------||---|---|---|---|---|---7-------|
| |___| |___| | |___| |___| |___| |
P P I P M P P P I P M P



I M I M Au
|--------------------------------|--------------------------------|
|----------------------------0---|--------------------0-----------|
|----------------------------|---|--------------------|-----------|
|----------------0---0-------|---|--------0---0-------|-----------|
|--------4h--5---|---|-------|---|4h--5---|---|-------|-----------|
|0-------|---|---|---|-------|---||---|---|---|-------|---7-------|
| |___| |___| |___| |___| |___| |___| |
P P P I M P P I M P

I M I M
|--------------------------------|--------------------------------|
|----------------------------0---|--------------------0-----------|
|----------------------------|---|--------------------|-----------|
|----------------0---0-------|---|--------0---0-------|-----------|
|--------4h--5---|---|-------|---|4h--5---|---|-------|---0-------|
|0-------|---|---|---|-------|---||---|---|---|-------|---|-------|
| |___| |___| |___| |___| |___| |___| |
P P P I M P P I M P



I Au I M I Au I M M
|--------------------------------|--------------------------------|
|--------------------2-----------|--------------------2-----------|
|------------0-------|-----------|------------0-------|-----------|
|--------4---|-------|---4-------|--------4---|-------|-----------|
|2-------|---|---2---|---|-------|0h--2---|---|---2---|-----------|
||-------|---|---|---|---|-------||---|---|---|-------|---4-------|
| |___| |___| | |___| |___| |___| |
P P I P M P P P I P M P

M An An An I An An An Au
|--------------------------------|--------------------------------|.
|--------------------------------|--------------------------------|. . .
|--------------------0-----------|--------------------0-----------|. . . . .
|------------0-------|-----------|------------0-------|-----------|. . . . . . .
|--------5---|---5---|---5-------|4h--5---5---|---5---|-----------|. . . . . . . . .
|5-------|---|---|---|---|-------||---|---|---|---|---|---7-------|. . . . . . . . . . .
| |___| |___| | |___| |___| |___| |
P P I P M P P P I P M P



Quelques explications :
En bas des mesures, les doigts de la main droite qui s'agitent (P : Pouce,
I : Index, M : Majeur... il en faut que 3 !)
En haut les doigts de la main gauche qui jouent les accords (I : Index,
M : Majeur, An : Annulaire, Au : Auriculaire)

h : hammer

#
j'ai quelques bonnes tabs de cet artiste absoluement génial
je les déposerai des que j'aurai le temps wink

#
l'elfe a écrit :
j'ai quelques bonnes tabs de cet artiste absoluement génial
je les déposerai des que j'aurai le temps wink


ça y est c'est fait, toutes les tabs de l'album "veneer"
donc, faites vous plair, et hésitez pas à les noter ou à aporter des suggestions wink

#

Heartbeats - José Gonzalez


Capo I
Accordage : DADF#AD



I M I M Au
|--------------------------------|--------------------------------|
|----------------------------0---|--------------------0-----------|
|----------------------------|---|--------------------|-----------|
|----------------0---0-------|---|--------0---0-------|-----------|
|--------4h--5---|---|-------|---|4h--5---|---|-------|-----------|
|0-------|---|---|---|-------|---||---|---|---|-------|---7-------|
| |___| |___| |___| |___| |___| |___| |
P P P I M P P I M P



I M I M
|--------------------------------|--------------------------------|
|----------------------------0---|--------------------0-----------|
|----------------------------|---|--------------------|-----------|
|----------------0---0-------|---|--------0---0-------|-----------|
|--------4h--5---|---|-------|---|4h--5---|---|-------|---0-------|
|0-------|---|---|---|-------|---||---|---|---|-------|---|-------|
| |___| |___| |___| |___| |___| |___| |
P P P I M P P I M P



I Au I M I Au I M M
|--------------------------------|--------------------------------|
|--------------------2-----------|--------------------2-----------|
|------------0-------|-----------|------------0-------|-----------|
|--------4---|-------|---4-------|--------4---|-------|-----------|
|2-------|---|---2---|---|-------|0h--2---|---|---2---|-----------|
||-------|---|---|---|---|-------||---|---|---|---|---|---4-------|
| |___| |___| | |___| |___| |___| |
P P I P M P P P I P M P



M An An An I An An An Au
|--------------------------------|--------------------------------|
|--------------------------------|--------------------------------|
|--------------------0-----------|--------------------0-----------|
|------------0-------|-----------|------------0-------|-----------|
|--------5---|---5---|---5-------|4h--5---5---|---5---|-----------|
|5-------|---|---|---|---|-------||---|---|---|---|---|---7-------|
| |___| |___| | |___| |___| |___| |
P P I P M P P P I P M P



I M I M Au
|--------------------------------|--------------------------------|
|----------------------------0---|--------------------0-----------|
|----------------------------|---|--------------------|-----------|
|----------------0---0-------|---|--------0---0-------|-----------|
|--------4h--5---|---|-------|---|4h--5---|---|-------|-----------|
|0-------|---|---|---|-------|---||---|---|---|-------|---7-------|
| |___| |___| |___| |___| |___| |___| |
P P P I M P P I M P

I M I M
|--------------------------------|--------------------------------|
|----------------------------0---|--------------------0-----------|
|----------------------------|---|--------------------|-----------|
|----------------0---0-------|---|--------0---0-------|-----------|
|--------4h--5---|---|-------|---|4h--5---|---|-------|---0-------|
|0-------|---|---|---|-------|---||---|---|---|-------|---|-------|
| |___| |___| |___| |___| |___| |___| |
P P P I M P P I M P



I Au I M I Au I M M
|--------------------------------|--------------------------------|
|--------------------2-----------|--------------------2-----------|
|------------0-------|-----------|------------0-------|-----------|
|--------4---|-------|---4-------|--------4---|-------|-----------|
|2-------|---|---2---|---|-------|0h--2---|---|---2---|-----------|
||-------|---|---|---|---|-------||---|---|---|-------|---4-------|
| |___| |___| | |___| |___| |___| |
P P I P M P P P I P M P

M An An An I An An An Au
|--------------------------------|--------------------------------|.
|--------------------------------|--------------------------------|. . .
|--------------------0-----------|--------------------0-----------|. . . . .
|------------0-------|-----------|------------0-------|-----------|. . . . . . .
|--------5---|---5---|---5-------|4h--5---5---|---5---|-----------|. . . . . . . . .
|5-------|---|---|---|---|-------||---|---|---|---|---|---7-------|. . . . . . . . . . .
| |___| |___| | |___| |___| |___| |
P P I P M P P P I P M P



Quelques explications :
En bas des mesures, les doigts de la main droite qui s'agitent (P : Pouce,
I : Index, M : Majeur... il en faut que 3 !)
En haut les doigts de la main gauche qui jouent les accords (I : Index,
M : Majeur, An : Annulaire, Au : Auriculaire)

h : hammer

ca sera plus clair je pense icon_redface

#
ouais, t'as raison
j'aurai pu le faire et puis j'ai pas pensé...

rankxerox

Hyper Tabber
Petit Downloader
1 message
#
chanteur oh !, mais je reconnais cette tablature ....

faut que je me penche sur les autres .... smiley-guitar
merci L'Elfe pour ces petits trésors.
Si vous aimez la guitare acoustique dy type folk tendance Paul Simon, mais plus facile je trouve, découvrez Iron & Wine en la personne de sam Bean, ca vaut le détour.

RX
#
Merci beaucoup pour les tabs de José Gonzalez. Ce type est vraiment génial!! icon_cheesygrin icon_cheesygrin icon_cheesygrin


nouveau message Répondre Recherche


plan Plan du Forum Tablatures||Tags : jose, publicite, gonzalez, tele, voir, aimerais, viens, heartbreat, sony