Tablature des films de Tim Burton


nouveau message Répondre
Recherche

#
Salut, je cherche désespérement des tab des musiques des films de Tim Burton et particulièrement de L'étrange Noel de Mr Jack et Vincent (le court métrage qui accompagne souvent Mr Jack).
Je n'ai malheureusement pas le niveau pour les retranscrire mais si quelqun planche dessu il devrait bien s'amuser icon_cheesygrin
Merci d'avance !



#
Bonjours
Sur ce lien tu as quelques chansons de Dany Elfman love :
http://www.mysongbook.com/tab-tab_list-id_artist=945.htm
C'est en format Guitarpro.

#
j'ai un tout petit début de la complainte de sally mais je ne suis pa du tout sure de moi!

---------------------------------
--------0------------------------
----0-2----0---------------------
-2-----------2--3----------------
---------------------------------
---------------------------------

#
oups dsl elle est super mal faite!(si qqun a la suite...)

#
pour la complaintede Salie ce sera plutot:


-----------0---------
-----1---3-----1-----
---2---------2---2---3
----------------------
----------------------
----------------------


nouveau message Répondre Recherche


plan Plan du Forum Tablatures||Tags : des, jack, burton, tim, films, noel, vincent, etrange, musiques