La Danse De Zorba (sirtaki) - Bo Zorba Le Grec : Tablature


nouveau message Répondre
Recherche

#
Je recherche cette tablature pour ma guitare seche.

Quelqu'un peut-il m'aider ?

voici le lien du site : http://www.partoch.com/tablature_THEODORAKIS+MIKIS.html

J'ai l'impression que celle ci est destiné à une electrique... sad



john2005

Jeune tabber
Petit Downloader
#
exact ceci est plus pour une electrique vu le nombre de fret icon_cheesygrin
mais tu peux essayer de retranscrire pour une seche ça doit etre possible non?
parsque je trouve toujours la meme tablature hum

Cueille des maintenant les fleurs de la vie car la mort est si pressée que le frele bouton qui s'ouvre aura biento trépassé
#
En effet, il est possible de la retranscrire en seche.

Cependant je suis debutant et honnetement j ai un peu de mal ...

C'est encore tout bete mais j'en suis encore au stade de poser mes doigts en lisant la tablatures.

Si quelqu'un peut m'aider ? icon_cheesygrin

john2005

Jeune tabber
Petit Downloader
#
je te retranscrie les partie impossible a faire sur seche des que j'ai le temps icon_cheesygrin
peut etre dans la soirée si ca te convient hum parsque avant ca va etre un peu dur smyleybleu

Cueille des maintenant les fleurs de la vie car la mort est si pressée que le frele bouton qui s'ouvre aura biento trépassé
#
Impec, je te remercie beaucoup de ta diligence. C'est super sympa de répondre aussi vite.

john2005

Jeune tabber
Petit Downloader
#
E |----------------------------------------------|
H |----3-4-------3-4--------6-4-3---3-------3-4--|
G |-------------------------------5--------------|
D |----------------------------------------------|
A |----------------------------------------------|
E |----------------------------------------------|

E |----------------------------------------------|
H |--------------4-------------------------------|
G |----5-6---------6-5-5-6--------4-5------------|
D |----------------------------------------------|
A |----------------------------------------------|
E |----------------------------------------------|

E |-----------------------------------|
H |-----------------------------------|
G |--6-5-3---5-3------5-3-----3-------|
D |--------6--------------6-5---6-----|
A |-----------------------------------|
E |-----------------------------------|

E |--10-11-------10-11--------9-13-11-10-11------|
H |--12-13-------12-13-------11-------12-13------|
G |----------------------------------------------|
D |----------------------------------------------|
A |----------------------------------------------|
E |----------------------------------------------|

E |--10-11-------8--9--------8h11--9--8--9-------|
H |--12-13-------10-11-------------11-10-11------|
G |----------------------------------------------|
D |----------------------------------------------|
A |----------------------------------------------|
E |----------------------------------------------|

E |--7--8------/11-13-11-9-8-11-9-------------|
H |--8--9-------9--11-11-9-9-11-11------------|
G |-------------------------------------------|
D |-------------------------------------------|
A |-------------------------------------------|
E |-------------------------------------------|

E |--8--11-9--8-6-9--8-----|
H |--9--11-11-9-8-11-9-----|
G |------------------------|
D |------------------------|
A |------------------------|
E |------------------------|

E |-10-11-11-11-11-11-11-11-11-11-11-11-11-11-11-11-|
H |-12-13-13-13-13-13-13-13-13-13-13-13-13-13-13-13-|
G |-------------------------------------------------|
D |-------------------------------------------------|
A |-------------------------------------------------|
E |-------------------------------------------------|

E |-10-11-11-11-11-11-11-11-11-11-11-11-11--9-------|
H |-12-13-13-13-13-13-13-13-13-13-13-13-------13-11-|
G |-------------------------------------------------|
D |-------------------------------------------------|
A |-------------------------------------------------|
E |-------------------------------------------------|

E |-10-11-11-11-11-11-11-11-11-11-11-11-11-11-11-11-|
H |-12-13-13-13-13-13-13-13-13-13-13-13-13-13-13-13-|
G |-------------------------------------------------| 2x
D |-------------------------------------------------|
A |-------------------------------------------------|
E |-------------------------------------------------|

E |-8--9--9--9--9--9--9--9--9--9--9--9--9--9--9--9--|
H |-10-11-11-11-11-11-11-11-11-11-11-11-11-11-11-11-|
G |-------------------------------------------------| 2x
D |-------------------------------------------------|
A |-------------------------------------------------|
E |-------------------------------------------------|

E |-10-11-11-11-11-11-11-11-11-11-11-11-11--9-------|
H |-12-13-13-13-13-13-13-13-13-13-13-13-------13-11-|
G |-------------------------------------------------|
D |-------------------------------------------------|
A |-------------------------------------------------|
E |-------------------------------------------------|

E |-8--9--9--9--9--9--9--9--9--9--9--9--9--8--------|
H |-10-11-11-11-11-11-11-11-11-11-11-11-------11-8--|
G |-------------------------------------------------| 2x
D |-------------------------------------------------|
A |-------------------------------------------------|
E |-------------------------------------------------|

E |-10-11-11-11-11-11-11-11-11-11-11-11-11-11-11-11-|
H |-12-13-13-13-13-13-13-13-13-13-13-13-13-13-13-13-|
G |-------------------------------------------------| ?x
D |-------------------------------------------------|
A |-------------------------------------------------|
E |-------------------------------------------------|


voila donc ce qua ca donne et normalement c'est doit etre jouable sur une classic icon_cheesygrin

bonne gratte

Cueille des maintenant les fleurs de la vie car la mort est si pressée que le frele bouton qui s'ouvre aura biento trépassé
#
effectivement c'est jouable!!!! icon_cheesygrin

#
C'est super sympa de m'avoir donner ce petit coup de pouce.

Encore merci wink

#
j' aime aussi zorba le grec et je joue des varietés sur guitare seche sonorisée selon l'endroit ; pourriez vous m'indiquer à quoi correspond la ligne verticale : H G E et les chiffres sur la ligne horizontale 3--4--6-4---3 10- 11-12-13 -5

remerciements anticipés cousinhubert94@gmail.com

pascal17

Petit causeur
Jeune tabber
Petit Downloader
11 photos
Membre VIP
45 messages
Modérateur
#
il s'agit d'une tablature,
EADGHe du bas vers le haut ce sont les noms des cordes
(H est la notation allemande, nous on prefere B, à l'américaine,
mais c'est pareil)

les chiffres correspondent aux cases où tu dois poser les doigts,
sur les cordes concernées...

enfin, c'est une tablature quoi....
http://www.partoch.com/cours/cours_guitare,133,Les+tablatures+++les+lire+et+les+...


nouveau message Répondre Recherche


plan Plan du Forum Tablatures||Tags : tablature, zorba, quelqu, seche, -il, aider, guitare, danse, sirtaki