Pennywise


nouveau message Répondre
Recherche

#
Salut, je cherche encore et toujours la tablature (format Guitar Pro) de Perfect People !!! Si quelqu'un a l'adresse d'un site qui l'aurait Merçi bravo



#
Salut,
j'adore pennywise...
Voici la tablature que j'ai trouvé...

intro:
e-|--------------------------------------
B-|--------------------------------------
G-|-------5-7-x-x---------------------5-- repeat
D-|-7-x-x-5-7-x-x-5-x-x-2-7-------5-7----
A-|-7-x-x-3-5-x-x-5-x-x-2-7---5-7--------
E-|-5-x-x---------3-x-x-0-5-5------------

e-|------------------------------------|
B-|------------------------------------|
G-|---------5-7-7-7-7------------------|
D-|-7-7-7-7-5-7-7-7-7-5-5-5-2-5-5-5-5--|
A-|-7-7-7-7-3-5-5-5-5-5-5-5-2-5-5-5-5--|
E-|-5-5-5-5-----------3-3-3-0-3-3-3-3--|
Yah.yah.yah.part
all.the.perfect.people..etc

e-|---------------------------------------|
B-|---------------------------------------|
G-|---------5-7-x-x-7---------------------|
D-|-7-x-x-7-5-7-x-x-7-5-x-x-5-2-7-x-x-7-7-|
A-|-7-x-x-7-3-5-x-x-5-5-x-x-5-2-7-x-x-7-7-|
E-|-5-x-x-5-----------3-x-x-3-0-5-x-x-5-5-|
so.i.took.a.drive etc

e-|--------------------------|
B-|--------------------------|
G-|---5-7---5-----5-7---5----|
D-|-7-5-7-5-5-7-7-5-7-5-5-7--|
A-|-7-3-5-5-3-7-7-3-5-5-3-7--|
E-|-5-----3---5-5-----3---5--|
fucked.up.e etc

e-|-----------------------------------|
B-|-----------------------------------|
G-|-----------------------------------|
D-|-----------7-----------7-5-5-5-5-7-|
A-|-----------7-----------7-5-5-5-5-7-|
E-|-x-x-x-x-x-5-x-x-x-x-x-5-3-3-3-3-5-|
i bet you think that i'm insane




en esperant ke cela te sufise je te di aurevoir ! wink ++
bon gratage !!!


nouveau message Répondre Recherche


plan Plan du Forum Tablatures||Tags : pennywise, format, guitar, tablature, toujours, cherche, encore, pro, perfect