When the stars go blue


nouveau message Répondre
Recherche

#
Salut tout le monde !!
Je recherche la tablature de "When the stars go blue" de Bono et The Corrs.
Si vous avai aussi la rythmique je suis preneuse wink
(Si vous avai juste les accords c'est pas grave)



xx-loren-xx

Petit Downloader
#
When the starts go blue


Intro:
Am C G D
E:|-------------------------------------|
B:|---------------------------------3---|
G:|-----2--------0--------0-------2---0-| 2x
D:|---2---2----2---0----0---0---0-------|
A:|-0--------3--------------------------|
E:|-------------------3-----------------|

Verse 1:

Am C G D
E:|-------------------------------------|
B:|---------------------------------3---|
G:|-----2--------0--------0-------2---0-| 3x
D:|---2---2----2---0----0---0---0-------|
A:|-0--------3--------------------------|
E:|-------------------3-----------------|
Dancin' ...
Dancin' ...
Dancin' ...

Am C
E:|----------------------|
B:|-----------------1----|
G:|-----2--------0--0----|
D:|---2---2----2----2----|
A:|-0--------3------3----|
E:|----------------------|
In ...

Verse 2:

Am C G D
E:|-------------------------------------|
B:|---------------------------------3---|
G:|-----2--------0--------0-------2---0-| 3x
D:|---2---2----2---0----0---0---0-------|
A:|-0--------3--------------------------|
E:|-------------------3-----------------|
Dancin' ...
Dancin' ...
Dancin'...

Am C
E:|----------------------|
B:|-----------------1----|
G:|-----2--------0--0----|
D:|---2---2----2----2----|
A:|-0--------3------3----|
E:|----------------------|
Are ...


C
Chorus:

C G Dsus2 C
Where ...

C G Dsus2 C
Where ...
C G Dsus2
Where ...

Am C
I'll ...

When ... G D C 2x

Verse 3:

Am C G D
E:|-------------------------------------|
B:|---------------------------------3---|
G:|-----2--------0--------0-------2---0-| 3x
D:|---2---2----2---0----0---0---0-------|
A:|-0--------3--------------------------|
E:|-------------------3-----------------|
Laughing ...
Laughing ...
Laughing ...

Am C
E:|----------------------|
B:|-----------------1----|
G:|-----2--------0--0----|
D:|---2---2----2----2----|
A:|-0--------3------3----|
E:|----------------------|
In ...

Chorus: 2x

C G Dsus2 C
Where ...

C G Dsus2 C
Where ...
C G Dsus2
Where ...
Am C C
I'll ...

... G D C 4x

C G Dsus2 C
Where ...

C G
Where ... E:|-------3--|
B:|------3---|
G:|-----0----|
D:|----0-----|
A:|---2------|
E:|--3-------|

#
J'espère qu'en 3 ans que la personne a trouvé la tablature quand même icon_cheesygrin

#
est ce que quelqu'un pourrai dire la rythmique please sad ?
même si ça paraît simple pour certain lol

useyourillusion

5 photos
#
Ce n'est pas : haut , bas , la rythmique ...


nouveau message Répondre Recherche


plan Plan du Forum Tablatures||Tags : when, avai, blue, stars, bono, recherche, tablature, tout, monde