Recherche Tablature Basse Seven turns


nouveau message Répondre
Recherche

#
Bonjour c'est la première fois que je post sur ce forum que j'utilise malgré tout depuis quelques années.


Après avoir longuement parcouru l'ensemble de la toile je n'ai trouvé aucune trace d'une tablature des Allman brothers sur leur titre Seven turns.

A l'oreille le début à l'air de sonner comme ça

E ---3--8--10----- x 4
E ---8---3--------- x 2
E---8--3---0----

Je n'arrive pas à trouver les notes suivantes en sachant qu'ensuite on reprend toujours le même Riff.
En revanche quand on écoute le titre il joue plusieurs notes entre celles là ce qui donne son petit charme à la chanson. Si quelqu'un pouvait m'aider à retranscrire la tablature de ce titre que ce soit proche de l'originale ou pas mais toujours avec style son aide serait la bienvenue.
Merci par avance,

Benjamin
Guitariste converti à la basse depuis 2 ans (grand bien m'en fasse!!)



xfab1972

Tabber motivé
2 photos
#
Salut,
dans la vidéo suivante

https://www.youtube.com/watch?v=aqxywPYRCbI

La basse attaque à 0:37 avec:

G |-------------------------------|--------------------------------|
D |-------------------------------|--------------------------------|
A |-------------------------------|--------------------------------|
E |--8--------8--8--------0----|--3--------3--3-----5--7----|


-------------------------------|--------------------------------|
-------------------------------|--------------------------------|
-------------------------------|--------------------------------|
--8--------8--8--------0----|--3--------3--3-----5--7----|


-------------------------------|-------------------------------|
-------------------------------|-------------------------------|
-------------------------------|-------------------------------|
--8--------8--8--------0----|--3--------3--0--------0----|


-------------------------------|----------------------------------||
-------------------------------|----------------------------------||
--------------------5---------|--5--5--5--5--5--5--5--5----||
--8--------8--7-------------|-----------------------------------||

A+

#
Bonjour Xfab et merci pour ta réponse.

J'ai une autre question cependant,

Arrives tu à savoir la transition qu'il fait à 1:37 sur cette même vidéo. Je suis pas doué en musique je ne fais que suivre les tablatures habituellement donc quand il s'agit de retrouver des notes j'ai un peu de mal..

En te remerciant par avance.

xfab1972

Tabber motivé
2 photos
#
Salut,
Je pars à 1:24 pour la transition:

------------------------------|-------------------------------|
------------------------------|-------------------------------|
------------------------------|-------------------------------|
--8--------8--8--------x----|--3--------3--3-----5--7----|


------------------------------|-------------------------------|
------------------------------|-------------------------------|
------------------------------|-------------------------------|
--8--------8--8--------x----|--3--------3--3-----5--7----|


------------------------------|------------------------------|
------------------------------|------------------------------|
------------------------------|------------------------------|
--8--------8--8--------x----|--3--------3--3-------------|


---------------------------------|--------------------------------|
---------------------------------|--------------------------------|
---------------------------------|--------------------------------|
--8L----8--7L----7--5L------|--5-----3L----3--7L----7----|


---------------------------------|--------------------------------|
---------------------------------|--------------------------------|
---------------------------------|---------------------x----------|
--7--7--7--7--7--8L-8--8----|--8--8--8--8--8-----3L------|


--------------------------------|---------------------------------|
--------------------------------|---------------------------------|
--------------------------------|---------------------------------|
--3--2L----2--7L----7-------|--7--7--7--7--7--7--7--7----|


-------------------------------|--------|----|----||
-------------------------------|--------|----|----||
-----------------x-------------|--------|----|----||
--7--7--7--7--------8L------|--8----|----|----||

X = note morte
L = note lié avec la suivante

tu peux également changer le doigté et utiliser la corde de LA si tu veux.


nouveau message Répondre Recherche



Autre liens sur le site pour The Allman Brothers Band : Discographie The Allman Brothers Band - Tee Shirt The Allman Brothers Band - Poster The Allman Brothers Band
plan Plan du Forum Tablatures||Tags : ---, titre, tablature, allman, toujours, brothers, depuis, ALLMAN, BROTHERS