Aide pour tablature


nouveau message Répondre
Recherche

#
Bonjour,
je suis en train d'essayer d'apprendre Imagination - just an illusion et je voudrais savoir si d'après mes notes ça sonne bien. bien sur pour moi ça sonne bien mais je voudrais des avis d'autres personnes.

intro:

E|----------------------------|
A|--7-------------------------|
D|---9-----------------11-7---|
G|----8-9--10-11-7/11-9-------|

E|----------------------------|
A|--7-------------------------|
D|---9-----------------11-7---|
G|----8-9--10-11-7/11-9-------|

E|------------------------------------------------|
A|--7------------------------------8-8-------8-8--|
D|---9-----------------11-7--7-7-7-----7-7-7------|
G|----8-9--10-11-7/11-9---------------------------|

merci d'avance :)




nouveau message Répondre Recherche


plan Plan du Forum Basse||Tags : -----------------, bien, sonne, voudrais, essayer, apres, notes, bonjour, moi