difficultés sur un solo


nouveau message Répondre
Recherche

#
Salut à tous, voilà je me suis attaqué depuis peu a un solo et ya une partie du solo assez difficile et rapide mais je comprends pas comment le jouer. Si quelqu'un pouvait m'aider.

Extrait du solo en question :

|-------------15--17--20--24--20--------------20--24--20--------------20--24--20-----------|
|---------17-------------------------22------22----------------22------22----------------22-------|
|-----17----------------------------------21-------------------------21------------------------21---|
|-19---------------------------------------------------------------------------------------|
|------------------------------------------------------------------------------------------|
|------------------------------------------------------------------------------------------|

|-22--19----------------19--22--19--------------19--22--19-------------|
|------------20------20--------------20-------20--------------20---------|
|-----------------19-----------------------19----------------------19-----|
|--------------------------------------------------------------------|
|--------------------------------------------------------------------|
|--------------------------------------------------------------------|

|-20--17--------------17--20--17--------------17--20--17-------------|
|-----------18------18--------------18------18--------------18---------|
|----------------17----------------------17----------------------17-----|
|--------------------------------------------------------------------|
|--------------------------------------------------------------------|
|--------------------------------------------------------------------|



aria35

1 photo
#
salut,
19 annulaire, 17 17 majeur,15 index slide 17,20 majeur , 24 auriculaire 22 annulaire, 21 majeur :)

la suite

22 annulaire,19 index,20 majeur, 19 index :)

a toi de trouver le reste wink

akira1555

Petit causeur
77 messages
#
Salut,

Il y a moyen que tu nous dises de quel solo et chanson il s'agit?

aria35

1 photo
#
c'est un plan en sweeping on voit bien l'arpège et les triades

#
La chanson c est war eternal de arch enemy et c est quoi le sweeping ?

aria35

1 photo
#
Le sweeping est une technique de jeu de balayage à part entière de la guitare qui consiste à gratter deux ou plusieurs cordes en conservant le même sens d'attaque du médiator

http://www.youtube.com/watch?v=0rOxwlEtNLI

#
Ok merci

blast 23

10 photos
2 messages
#
avant de t'attaqué a ce solo il va falloir que tu maitrise les technique du sweeping commence par un travail lent pour ne pas prendre de mauvaise habitude.
le mieux est de commencé a apprendre des technique sur cinqs cordes.

cordialement blast
#
C'est exactement ce que je fait, je suis pas fou au point d'apprendre a jouer en sweeping sur ce solo x)
Mais pourquoi apprendre direct sur 5 cordes ? deja que sur 3 je galère alors 5...

blast 23

10 photos
2 messages
#
tous simplement par ce que le mouvement est plus ample et évite de prendre de mauvaise habitude et d'voir une technique de sweep approximative après quand tu maitrise sur cinq cordes sur trois cordes c'est over simple qui peut le plus peut le moins wink
après perso pour mes sweep je me sert du micro manche sa sonne bien mieux.

cordialement blast
aria35

1 photo
#
blast 23
blast 23 a écrit :
tous simplement par ce que le mouvement est plus ample et évite de prendre de mauvaise habitude et d'voir une technique de sweep approximative après quand tu maitrise sur cinq cordes sur trois cordes c'est over simple qui peut le plus peut le moins wink
après perso pour mes sweep je me sert du micro manche sa sonne bien mieux.



perso micro chevalet et réglage de volume (comme souvent) et mon son est bon :)

blast 23

10 photos
2 messages
#
oui sa le fait aussi mais sa dépend des grattes wink

cordialement blast

nouveau message Répondre Recherche


plan Plan du Forum Débutants||Tags : --------------, ------, solo, ----------------------, ----------------, -------------------------, depuis, question, difficultes