Help ! : Recherche Tab temple of the king version accoustic


nouveau message Répondre
Recherche

#
Bonjour,

Je cherche désespérément la tablature du morceau de Rainbow "Temple of The King" version acoustique que l'on peut entendre le mieux sur cette video youtube : http://www.youtube.com/watch?v=9SKxbNiSV-k
J'ai essayé de la transcrire mais mon oreille est largement insuffisante pour y arriver correctement...
Si quelqu'un pouvait m'aider, je lui serais éternellement reconnaissant.
Cordialement
Kunkyen



rankxerox

Hyper Tabber
Petit Downloader
1 message
#
Salut
voilà un petit morceau adéquat pour se dégourdir les doigts ...
voilà les 32 premières secondes :


Temple of the king_ (cover version)-RAINBOW

TablEdited by RankXerox


|0---------------0---------------|----0---------------------------|
|1---------------1---------------|3-------3---1-------3---1-------|
|2-------------------------------|--------------------------------|
|--------2---------------2-------|--------2---------------2-------|
|0---------------0---------------|0---------------0---------------|
|--------------------------------|--------------------------------|


|--------------------------------|1-------------------------------|
|----------------1---------------|----------------1---------------|
|2-------------------------------|--------------------------------|
|--------3---------------3-------|--------3---------------3-------|
|--------------------------------|--------------------------------|
|1---------------1---------------|1---------------1---------------|


|--------------------------------|----0---------------------------|
|3---------------3---------------|3-------3---1-------3---0-------|
|--------------------------------|--------------------------------|
|--------0---------------0-------|--------0---------------0-------|
|--------------------------------|--------------------------------|
|3---------------3---------------|3---------------3---------------|


|--------------------------------|--------------------------------|
|----------------0---1-----------|--------------------------------|
|2-------------------------------|--------------------------------|
|--------2---------------2-------|------------0---2---------------|
|0---------------0---------------|0---2---3-----------0---3-------|
|--------------------------------|--------------------------------|


|3---------------3---------------|2---3---2---0-------2---0-------|
|1---------------1---------------|1-------------------------------|
|2-------------------------------|2-------------------------------|
|--------2---------------2-------|--------2---------------2-------|
|0---------------0---------------|0---------------0---------------|
|--------------------------------|--------------------------------|


|------------------------3/--5/--|3-------------------------------|
|3---------------0-------3/--5/--|3-------------------------------|
|--------------------------------|--------------------------------|
|--------0-----------------------|--------0---------------0-------|
|--------------------------------|--------------------------------|
|3---------------3-------3/--5/--|3---------------3---------------|


|--------------------------------|----0---------------------------|
|3-------------------------------|3-------3---1-------3---0-------|
|------------------------2-------|--------------------------------|
|--------0-------2---------------|2---------------2---------------|
|0-------------------------------|--------------------------------|
|--------------------------------|--------------------------------|


|--------------------------------|------------------------0h--3---|
|----------------0h--1-------1---|------------------------1-------|
|--------------------------------|------------------------0-------|
|--------2---------------2-------|------------2---0---------------|
|0---------------0---------------|0---2---3-----------2---3-------|
|--------------------------------|--------------------------------|


|--------------------------------|--------------------------------|
|3-------3---1---3-------3---1---|3-----------1---3-------1-------|
|--------------------------------|--------2-----------------------|
|--------0---------------0-------|----0---------------------------|
|--------------------------------|0---------------0---------------|
|3---------------3---------------|--------------------------------|


|--------------------------------|--------------------------------|
|--------------------0-----------|1-----------------------1---3---|
|2-----------2-------------------|--------------------------------|
|----2-------2-------------------|--------3---------------3-------|
|0-------0-----------------------|--------------------------------|
|--------------------------------|1---------------1---------------|


|--------------------------------|--------------------------------|
|0---------------0---------------|----------------1---------------|
|------------0-------2---0-------|2---0---2---------------0-------|
|--------0-----------------------|--------2---------------2-------|
|--------------------------------|0---------------0---------------|
|3---------------3---------------|--------------------------------|


|--------32 PREMIERES SECONDES---|--------------------------------|
|--------------------------------|--------------------------------|
|2-------------------------------|--------------------------------|
|--------------------------------|--------------------------------|
|0-------------------------------|--------------------------------|
|--------------------------------|--------------------------------|


RX2014


bon dimanche et bonne année

RX
#
Bonjour,

Merci beaucoup de votre réponse et de la tablature.

Toutefois il est évident que, plus que jamais, je vais avoir envie de connaitre la suite.
Je ne sais si vous avez transcris vous même le morceau ou si vous avez déjà le reste de la partition. Dans les deux cas, je vous demande à nouveau votre participation parce que j'aime vraiment beaucoup ce morceau. Mais évidemment rien ne presse.

Quoiqu'il en soit, je vous remercie à nouveau de votre aide et vous souhaite également mes meilleurs vœux.

Cordialement
Kunkyen

rankxerox

Hyper Tabber
Petit Downloader
1 message
#
Salut

la suite ici :
http://www.partoch.com/tablature/rainbow,temple-of-the-king-cover-version-,30896...

mais pas encore la fin (on arrive à 1'04)
De quoi se faire quelques crampes ...
Bon dimanche

RX
#
Bonjour,

Merci beaucoup. C'est vraiment sympa de votre part.
Je vais sans doute à nouveau paraitre exigeant mais il est bien sûr que le morceau m'intéresse dans sa totalité.
Si vous pouvez me faire parvenir la suite même en morceaux comme vous avez commencé ce serait évidemment encore mieux.
Merci encore.
Amicalement
Kunkyen

rankxerox

Hyper Tabber
Petit Downloader
1 message
#
bon bah ...toujours pas complet !!!
mise à jour aujourd'hui
on avance, on avance

bon dimanche

RX
#
Bonsoir,

Je vous remercie vraiment pour tout ce travail accompli. J'avance également à l'exécution du morceau et je me régale.
A très bientôt.
Kunkyen

#
Bonjour,

arrivé à la fin de votre transcription, j'aimerai beaucoup avoir la suite pour terminer ce morceau.
merci d'avance
Kunkyen


nouveau message Répondre Recherche



Autre liens sur le site pour Rainbow : Discographie Rainbow - Tee Shirt Rainbow - Poster Rainbow
plan Plan du Forum Tablatures||Tags : king, RAINBOW, rainbow, version, temple, morceau, video, acoustique, entendre