Recherche Tablature (Stanhope - Scott Macleod)


nouveau message Répondre
Recherche

#
Bonjours a tous,

Après avoir rechercher asser longtemps une tablature, en vain, je me tourne vers vous.

Voici la tablature (pour guitare) que je recherche :

http://www.youtube.com/watch?v=lwJ4JdS0RWo

J'ai déja trouver les 5 premières notes, mais impossible d'aller plus loin ^^

Les voici :

E ------------------------
B -------4-----4-------4--
G -----3-----3-------3----
D ---5-------------5------
A -6-------6-----6------6-
E ------------------------

N'étant pas un expert je sais que je ne pourrais pas aller plus loin...
J’espère donc que vous pourrais m'aider.

Cordialement



rankxerox

Hyper Tabber
Petit Downloader
1 message
#
Salut

l'intro :

Capo III


|--------------------------------|--------------------------------|
|------------1---------------1---|------------1-------------------|
|--------0---------------0-------|--------0---------------0-------|
|0h--2---------------------------|0h--2---------------------------|
|----------------3---------------|----------------3---------------|
|--------------------------------|--------------------------------|


|--------------------------------|--------------------------------|
|--------1p--0---------------1---|------------1-------------------|
|------------------------0-------|--------0---------------0-------|
|3-------2-----------------------|0h--2---------------------------|
|----------------3---------------|----------------3---------------|
|--------------------------------|--------------------------------|


|--------------------------------|--------------------------------|
|--------1p--0---------------1---|------------1---------------1---|
|------------------------0-------|--------0---------------0-------|
|3-------2-----------------------|0h--2---------------------------|
|----------------3---------------|----------------3---------------|
|--------------------------------|--------------------------------|



des liens :

http://fr.calameo.com/read/000332609dcdc7419ae93
http://www.partoch.com/tablature/scuba-divers,stanhope-scott-macleod,3089106

bon courage

RX
#
Salut rankxerox

Grand merci a toi pour cette tablature, je ne l'aurais pas trouver moi même ^^

Cordialement.


nouveau message Répondre Recherche


plan Plan du Forum Tablatures||Tags : -------, -----, tablature, aller, plus, loin, voici, les, pourrais